Nine Days - Bitter Chords & Tabs

 

Bitter Chords & Tabs

Nine Days Chords & Tabs

Version: 2 Type: Tab 0 ratings
1 star 2 stars 3 stars 4 stars 5 stars
comments

Bitter Tab

song:bitter
artist:nine days 
tabbed by: pete mee

Intro:

-2---2---2---2---2---2---2---2---2---2---2---2----------e
-3---3---3---3---2---2---2---2---3---3---3---3----------
-------------------------------4---4---4---4------------
---0---0---0---0---0---0---0----------------------------
--------------------------------------------------------
--------------------------------------------------------E
[ Tab from: http://www.guitartabs.cc/tabs/n/nine_days/bitter_tab_ver_2.html ]
--------------------------------------------------------e
---3---3---3---3---3---3---3---3---3---3---3---3--------
---2---2---2---2---2---2---2---2---2---2---2---2--------
-4---4---4---4---5---5---5---5---4---4---4---4----------
--------------------------------------------------------
--------------------------------------------------------E

--------------------------------------------------------e
---2---2---2---2---2---2---2---2------------------------
---2---2---2---2---2---2---2---2------------------------
-2---2---2---2------------------------------------------
-----------------0---0---0---0--------------------------
--------------------------------------------------------E

Alright this is the first tab i have ever done and i i'm 99% sure this is right if it is wrong email me at to_pete10@hotmail.com

cya and jeep on playing the guitar(god's music)
Comments