Nine Days - Absolutely Chords & Tabs

 

Absolutely Chords & Tabs

Nine Days Chords & Tabs

Version: 3 Type: Tab 0 ratings
1 star 2 stars 3 stars 4 stars 5 stars
comments

Absolutely Tab

   
Hey people...absolutely (story of a girl) solo (attempted)
P.S. these are just some notes...i might add in some rythym or else have fun with it
(listen to the song to see how it goes)
surfboard23@hotmail.com 

Standard tuning

e|---------------------------10-12-10--10-10-10-10-10-19-19-17-15-12p10-10-|
B|-------------------------------------------------------------------------|
G|--0-0-2-0-0-4-2-2-4-0-0-4------------------------------------------------|
D|-------------------------------------------------------------------------|
A|-------------------------------------------------------------------------|
E|-------------------------------------------------------------------------|

im not sure what this is...but its something
          |
          v
e|--7-5-3-5/6/-------------------------------------------------------------|
B|--------5/6/-----------------------------------10-8-10-12----------------|
G|---------------7-7-7-7-0/2\0-0-0-0-7-7-7-7-7-7---------------------------|
D|-------------------------------------------------------------------------|
A|-------------------------------------------------------------------------|
E|-------------------------------------------------------------------------|
[ Tab from: http://www.guitartabs.cc/tabs/n/nine_days/absolutely_tab_ver_3.html ]
this is just in the background a bit but try it if u want during the solo
               ____|______
              |           |
e|-------------------------------------------------------------------------|
B|-7-7-7-7-7-7-8-8-8-10-12----8-8-8-10-12-8-8-8----8-8-8-10-12-12-10-8-----|
G|-------------------------------------------------------------------------|
D|-------------------------------------------------------------------------|
A|-------------------------------------------------------------------------|
E|-------------------------------------------------------------------------|
        this note is kinda repeated a lot so just fake it
                                      v
e|--15-15-15-12-12-10-7-10/12---------15--12-12-10----7-5-3-0-3-5-3--------|
B|--------------------------------------------------|________________|-----|
G|---------------------------------------------------------- | ------------|
D|------------------------get the rythym for this..its a good part---------|
A|-------------------------------------------------------------------------|
E|-------------------------------------------------------------------------|

e|-------------------------------------------------------------------------|
B|---3/5-------------------------------------------------------------------|
G|--------7-5\0------------------------------------------------------------|
D|-------------------------------------------------------------------------|
A|----theres a rythym for this last part...just figure it out------------|
E|-------------------------------------------------------------------------|

| /  slide up
| \  slide down
| h  hammer-on
| p  pull-off
============================================================================
Comments