Nine Days - Absolutely Chords & Tabs

 

Absolutely Chords & Tabs

Nine Days Chords & Tabs

Version: 2 Type: Tab 0 ratings
1 star 2 stars 3 stars 4 stars 5 stars
comments

Absolutely Tab

   
absolutely story of a girl solo
tabbed by kidbowen3
this took me a long time to figure out so enjoy it
----------------------
key:
* = hold note
b = bend
, = fast and sharp
/ or \ = bend up or down
[ Tab from: http://www.guitartabs.cc/tabs/n/nine_days/absolutely_tab_ver_2.html ]
e|10***-777-777-8-888-9-999-10-101010-11-111111-12-12121212------|
B|10b12-7710b11-11b12-12b13-13b14-----14b15-----15b16------------|
G|---------------------------------------------------------------|
D|---------------------------------------------------------------|
A|---------------------------------------------------------------|
E|---------------------------------------------------------------|
  ,  ,  ,  ,  ,  ,  ,  ,  ,  ,  ,  ,  ,  ,  ,  ,  ,  ,  ,  ,
e|15-15-15-15-------------------------17-17-17-17-15-15-15-15----|
B|15-15-15-15-17-17-17-17-15-15-15-15----------------------------|
G|---------------------------------------------------------------|
D|---------------------------------------------------------------|
A|---------------------------------------------------------------|
E|---------------------------------------------------------------|
  ,  ,  ,  ,  ,  ,  ,  ,
e|19-19-19-19-17-17-17-17-/-------------------------------------\--|
B|------------------------|17-17-17-17\15-15-15\12-12-12\10-10-10--|
G|------------------------|17-17-17-17\15-15-15\12-12-12\10-10-10--|repeat 2 times
D|------------------------|----------------------------------------|
A|------------------------|----------------------------------------|
E|------------------------\----------------------------------------|
    /\/\/      /\/\/                   /\
e|---------------------------------------------------------------|
B|10b----8-8-10b----8-8--7777-9999-97----------------------------|
G|--------9----------9---7777-9999---97b-------------------------|
D|---------------------------------------------------------------|
A|---------------------------------------------------------------|
E|---------------------------------------------------------------|
then continue to the chorus

oohf that was hard ok well i hope you like it please rate it
Comments