Nine Days - Absolutely Chords & Tabs

 

Absolutely Chords & Tabs

Nine Days Chords & Tabs

Version: 1 Type: Chords 0 ratings
1 star 2 stars 3 stars 4 stars 5 stars
comments

Absolutely Chords

   
Nine Days, Absolutley ( Story of A Girl ).
 Tabbed by Brian, BrianMatthewsBnd@aol.com.
  
This is the story of a girl...

e-3-3-3-2---3-3----------
B-3-3-3-3-3-3-3----------
G-0-0-2-2-4-0-2----------
D-2-0-2-0-4-2-2----------
A-3-2-0---2-3-0----------

When She Smiles...
[ Tab from: http://www.guitartabs.cc/tabs/n/nine_days/absolutely_crd.html ]
e-3-2-3------------
B-3-3-3------------
G-0-2-0------------
D-0-0-2------------
A-2---3------------
E-3----------------

Verse:

Bm Cadd9 G D

Well your hair..

e--------------
B--------------
G--------------
D-2-4-5-7------
A-2-4-5-7------
E-0-2-3-5------    End on G


Enjoy
 
:: Ultimate Guitar Archive :: 
http://www.ultimate-guitar.com 
 
Comments