Nine Black Alps - Unsatisfied Chords & Tabs

 

Unsatisfied Chords & Tabs

Nine Black Alps Chords & Tabs

Version: 1 Type: Bass Tab 0 ratings
1 star 2 stars 3 stars 4 stars 5 stars
comments

Unsatisfied Bass Tab

Right! well here we have the correct bass line for this absolute tunage: unsatisfied.
Artist: Nine Black Alps
Song: Unsatisfied
Album: Everything is
Tuning: Standard
ENJOY!
.Joe.


Intro & Verse
G|-----------------------------------|
D|-----------------------------------|
A|-----------------------------------| x4
E|-0-0-0-0-0-0-0-0/-4-4-4-4-4-4-4-4--|

Pre-Chorus Section


G|----------------------------------------|
D|----------------------------------------|
A|-4-4-4----------------------------------| x3
E|-------4-4-4-4-2-2-2-4-4-4-4------------|

2nd Time
G|----------------------------------------|
D|----------------------------------------|
A|-4-4-4-4-4-4-4-4/-8-8-8-8-8-8-8-8-------|
E|----------------------------------------|


Chorus
Listen for the rythm because its really hard to 
tab rythm.
Part 1.
G|-------------------------------------------------------|
D|-------------------------------------------------------|
A|-------------------------------------------------------|
E|-0-0-0-0-0-0/-4-4-4-4-4-4-0-0-0-0-0-0/-4-4-4-4-4-4-----|

Part 2.
G|-------------------------------------------------------------------|
D|-------------------------------------------------------------------|
A|-4-4-4-4-2-2-2-2-1-1-1-1-------------------------------------------|
E|--------------------------5-5-5-5-4-4-4-4-4-4-4-0-4-4-4-4-4-4-4-4--|

Back To Verse....

G|-----------------------------------|
D|-----------------------------------|
A|-----------------------------------| x4
E|-0-0-0-0-0-0-0-0/-4-4-4-4-4-4-4-4--|


Back To Pre-Chorus...
[ Tab from: http://www.guitartabs.cc/tabs/n/nine_black_alps/unsatisfied_btab.html ]
G|----------------------------------------|
D|----------------------------------------|
A|-4-4-4----------------------------------| x3
E|-------4-4-4-4-2-2-2-4-4-4-4------------|

2nd Time
G|----------------------------------------|
D|----------------------------------------|
A|-4-4-4-4-4-4-4-4/-8-8-8-8-8-8-8-8-------|
E|----------------------------------------|

Back To Chorus...

Part 1.
G|-------------------------------------------------------|
D|-------------------------------------------------------|
A|-------------------------------------------------------|
E|-0-0-0-0-0-0/-4-4-4-4-4-4-0-0-0-0-0-0/-4-4-4-4-4-4-----|

Part 2. (slightly different, notice the end is shorter)
G|-------------------------------------------------------------------|
D|-------------------------------------------------------------------|
A|-4-4-4-4-2-2-2-2-1-1-1-1-------------------------------------------|
E|--------------------------5-5-5-5-4-4-4-4-4-4-4-0-4-4-4-4----------|

Interlude
G|---------------------------------|                     
D|---------------------------------|
A|-2-2-5-4-4-4-4-4-4-4-4-4-4-4-4---|    X 3                        
E|---------------------------------|  

        4th Time.                  
G|-----------------------------------------|                     
D|-----------------------------------------|
A|-2-2-5-4-4-4-4-4-4-4-4-4-4-4-4-4-4-4-4---|
E|-----------------------------------------| 


Back To Chorus... (only part 1.

Part 1.
G|-------------------------------------------------------|
D|-------------------------------------------------------|            X 8
A|-------------------------------------------------------|
E|-0-0-0-0-0-0/-4-4-4-4-4-4-0-0-0-0-0-0/-4-4-4-4-4-4-----|



Comments