Nine Black Alps - Shot Down Chords & Tabs

 

Shot Down Chords & Tabs

Nine Black Alps Chords & Tabs

Version: 4 Type: Tab 0 ratings
1 star 2 stars 3 stars 4 stars 5 stars
comments

Shot Down Tab

   
Artist: Nine Black Alps
Song: Shot Down
Album: Everything Is
Tuning: D G C F A D
Tabbed By James Morris

Intro
Guitar 1 (Not correct rhythm)
D|--------------------|
A|-101010101010101010-|
F|--8-8-8-8-8-8-8-8-8-|
C|--9-9-9-9-9-9-9-9-9-| x2
G|--9-9-9-9-9-9-9-9-9-|
D|--------------------|

Guitar 1 (Not correct rhythm)
D|--------------------|
A|-101010101010101010-|
F|--8-8-8-8-8-8-8-8-8-|
C|--9-9-9-9-9-9-9-9-9-| x2
G|--9-9-9-9-9-9-9-9-9-|
D|--------------------|

Guitar 2
D|--------------------|
A|-101010101010101010-|
F|--8-8-8-8-8-8-8-8-8-|
C|--x-x-x-x-x-x-x-x-x-| x2
G|--9-9-9-9-9-9-9-9-9-|
D|--7-7-7-7-7-7-7-7-7-|

Verse
Both Guitars
D|-3-3-333-2-2-222-|
A|-3-3-333-4-4-444-|
F|-4-4-444-4-4-444-|
C|-5-5-555-4-4-444-| x3
G|-5-5-555-2-2-222-|
D|-3-3-333---------|

Then

Guitar 1
D|-7-7777---77777-9-|
A|-9-9999---9999911-|
F|-9-9999---9999911-|
C|-9-9999---9999911-|
G|-7-7777---77777-9-|
D|------------------|

Guitar 2
D|-0-0000---00000-2-|
A|-0-0000---00000-2-|
F|-1-1111---11111-3-|
C|-2-2222---22222-4-|
G|-2-2222---22222-4-|
D|-0-0000---00000-2-|

Verse
Both Guitars
D|-3-3-333-2-2-222-|
A|-3-3-333-4-4-444-|
F|-4-4-444-4-4-444-|
C|-5-5-555-4-4-444-| x3
G|-5-5-555-2-2-222-|
D|-3-3-333---------|

Then

Guitar 1
D|-7-7777---77777-7-|
A|-9-9999---99999-9-|
F|-9-9999---99999-9-|
C|-9-9999---99999-9-|
G|-7-7777---77777-7-|
D|------------------|

Guitar 2
D|-0-0000---00000-0-|
A|-0-0000---00000-0-|
F|-1-1111---11111-1-|
C|-2-2222---22222-2-|
G|-2-2222---22222-2-|
D|-0-0000---00000-0-|

Bridge
Guitar 1 (Not correct rhythm)
D|--------------------|
A|-101010101010101010-|
F|--8-8-8-8-8-8-8-8-8-|
C|--9-9-9-9-9-9-9-9-9-| x4
G|--9-9-9-9-9-9-9-9-9-|
D|--------------------|

Guitar 2
D|--------------------|
A|-101010101010101010-|
F|--8-8-8-8-8-8-8-8-8-|
C|--x-x-x-x-x-x-x-x-x-| x4
G|--9-9-9-9-9-9-9-9-9-|
D|--7-7-7-7-7-7-7-7-7-|

Verse
Both Guitars
D|-3-3-333-2-2-222-|
A|-3-3-333-4-4-444-|
F|-4-4-444-4-4-444-|
C|-5-5-555-4-4-444-| x3
G|-5-5-555-2-2-222-|
D|-3-3-333---------|

Then

Guitar 1
D|-7-7777---77777-9-|
A|-9-9999---9999911-|
F|-9-9999---9999911-|
C|-9-9999---9999911-|
G|-7-7777---77777-9-|
D|------------------|

Guitar 2
D|-0-0000---00000-2-|
A|-0-0000---00000-2-|
F|-1-1111---11111-3-|
C|-2-2222---22222-4-|
G|-2-2222---22222-4-|
D|-0-0000---00000-2-|

Verse
Both Guitars
D|-3-3-333-2-2-222-|
A|-3-3-333-4-4-444-|
F|-4-4-444-4-4-444-|
C|-5-5-555-4-4-444-| x3
G|-5-5-555-2-2-222-|
D|-3-3-333---------|

Then

Guitar 1
D|-7-7777---77777-7-|
A|-9-9999---99999-9-|
F|-9-9999---99999-9-|
C|-9-9999---99999-9-|
G|-7-7777---77777-7-|
D|------------------|

Guitar 2
D|-0-0000---00000-0-|
A|-0-0000---00000-0-|
F|-1-1111---11111-1-|
C|-2-2222---22222-2-|
G|-2-2222---22222-2-|
D|-0-0000---00000-0-|

Pre-chorus (not correct rhythm)
D|------------------------------|
A|-9-9-x9-9-9-x9x9-9-9-x9x9-9-9-|
F|-7-7-x7-7-7-x7x7-7-7-x7x7-7-7-|
C|-9-9-x9-9-9-x9x9-9-9-x9x9-9-9-|
G|-7-7-x7-7-7-x7x7-7-7-x7x7-7-7-|
D|------------------------------|

Then

Guitar 1 (Different rhythm to intro)
D|--------------------|
A|-101010101010101010-|
F|--8-8-8-8-8-8-8-8-8-|
C|--9-9-9-9-9-9-9-9-9-| x2
G|--9-9-9-9-9-9-9-9-9-|
D|--------------------|

Guitar 2
D|--------------------|
A|-101010101010101010-|
F|--8-8-8-8-8-8-8-8-8-|
C|--x-x-x-x-x-x-x-x-x-| x2
G|--9-9-9-9-9-9-9-9-9-|
D|--7-7-7-7-7-7-7-7-7-|

D|------------------------------|
A|-9-9-x9-9-9-x9x9-9-9-x9x9-9-9-|
F|-7-7-x7-7-7-x7x7-7-7-x7x7-7-7-|
C|-9-9-x9-9-9-x9x9-9-9-x9x9-9-9-|
G|-7-7-x7-7-7-x7x7-7-7-x7x7-7-7-|
D|------------------------------|

Chorus
Both Guitars
D|-3-33-3-3-5-55-5-5-2-22-2-2---------------------|
A|-3-33-3-3-7-77-7-7-2-22-2-2---------------------|
F|-4-44-4-4-7-77-7-7-3-33-3-3-4444/6666/7777/9999-|
C|-5-55-5-5-7-77-7-7-4-44-4-4-xxxx/xxxx/xxxx/xxxx-|
G|-5-55-5-5-5-55-5-5-4-44-4-4-2222/4444/5555/7777-|
D|-3-33-3-3----------2-22-2-2---------------------|

Then

Guitar 1
D|-3-33-3-3-5-55-5-5---------------------------------|
A|-3-33-3-3-7-77-7-7---------------------------------|
F|-4-44-4-4-7-77-7-7-3-3-3-3/4-4-4-4/5-5-5-5/6-6-6-6-|
C|-5-55-5-5-7-77-7-7-x-x-x-x/x-x-x-x/x-x-x-x/x-x-x-x-|
G|-5-55-5-5-5-55-5-5-1-1-1-1/2-2-2-2/3-3-3-3/4-4-4-4-|
D|-3-33-3-3------------------------------------------|
[ Tab from: http://www.guitartabs.cc/tabs/n/nine_black_alps/shot_down_tab_ver_4.html ]
Guitar 2
Both Guitars
D|-3-33-3-3-5-55-5-5-2-2-2-2-2-2-2-2-2-2-2-2-2-2-2-2-|
A|-3-33-3-3-7-77-7-7-2-2-2-2-2-2-2-2-2-2-2-2-2-2-2-2-|
F|-4-44-4-4-7-77-7-7-3-3-3-3-3-3-3-3-3-3-3-3-3-3-3-3-|
C|-5-55-5-5-7-77-7-7-4-4-4-4-4-4-4-4-4-4-4-4-4-4-4-4-|
G|-5-55-5-5-5-55-5-5-4-4-4-4-4-4-4-4-4-4-4-4-4-4-4-4-|
D|-3-33-3-3----------2-2-2-2-2-2-2-2-2-2-2-2-2-2-2-2-|

Bridge
Guitar 1 (Not correct rhythm)
D|--------------------|
A|-101010101010101010-|
F|--8-8-8-8-8-8-8-8-8-|
C|--9-9-9-9-9-9-9-9-9-| x4
G|--9-9-9-9-9-9-9-9-9-|
D|--------------------|

Guitar 2
D|--------------------|
A|-101010101010101010-|
F|--8-8-8-8-8-8-8-8-8-|
C|--x-x-x-x-x-x-x-x-x-| x4
G|--9-9-9-9-9-9-9-9-9-|
D|--7-7-7-7-7-7-7-7-7-|

Solo
Guitar 1
D|------------------------------------------------------------------|
A|--7------------------7------------------7---------------9997-9997-|
F|---9-7-------7---7----9-7-------7---7----9-7------7---7/9997-9997-|
C|-------9-9-9---9----------9-9-9---9----------9--9---9-------------|
G|------------------------------------------------------------------|
D|------------------------------------------------------------------|

D|---------------------------------------------------------------|
A|-121212/15\121212/15\121212/15\121212/17\121212/15\121212\10\7-|
F|---------------------------------------------------------------|
C|---------------------------------------------------------------|
G|---------------------------------------------------------------|
D|---------------------------------------------------------------|

D|-----------------|
A|-9-9-9-7-9-9-9-7-|
F|-9-9-9-7-9-9-9-7-|
C|-----------------|
G|-----------------|
D|-----------------|

Guitar 2
D|-3-3-333-2-2-222-|
A|-3-3-333-4-4-444-|
F|-4-4-444-4-4-444-|
C|-5-5-555-4-4-444-| x3
G|-5-5-555-2-2-222-|
D|-3-3-333---------|

D|-0-0000---00000-2-|
A|-0-0000---00000-2-|
F|-1-1111---11111-3-|
C|-2-2222---22222-4-|
G|-2-2222---22222-4-|
D|-0-0000---00000-2-|

D|-3-3-333-2-2-222-|
A|-3-3-333-4-4-444-|
F|-4-4-444-4-4-444-|
C|-5-5-555-4-4-444-| x3
G|-5-5-555-2-2-222-|
D|-3-3-333---------|

D|-0-0000---00000-0-|
A|-0-0000---00000-0-|
F|-1-1111---11111-1-|
C|-2-2222---22222-2-|
G|-2-2222---22222-2-|
D|-0-0000---00000-0-|

Pre-chorus (not correct rhythm)
D|------------------------------|
A|-9-9-x9-9-9-x9x9-9-9-x9x9-9-9-|
F|-7-7-x7-7-7-x7x7-7-7-x7x7-7-7-|
C|-9-9-x9-9-9-x9x9-9-9-x9x9-9-9-|
G|-7-7-x7-7-7-x7x7-7-7-x7x7-7-7-|
D|------------------------------|

Then

Guitar 1 (Different rhythm to intro)
D|--------------------|
A|-101010101010101010-|
F|--8-8-8-8-8-8-8-8-8-|
C|--9-9-9-9-9-9-9-9-9-| x2
G|--9-9-9-9-9-9-9-9-9-|
D|--------------------|

Guitar 2
D|--------------------|
A|-101010101010101010-|
F|--8-8-8-8-8-8-8-8-8-|
C|--x-x-x-x-x-x-x-x-x-| x2
G|--9-9-9-9-9-9-9-9-9-|
D|--7-7-7-7-7-7-7-7-7-|

D|------------------------------|
A|-9-9-x9-9-9-x9x9-9-9-x9x9-9-9-|
F|-7-7-x7-7-7-x7x7-7-7-x7x7-7-7-|
C|-9-9-x9-9-9-x9x9-9-9-x9x9-9-9-|
G|-7-7-x7-7-7-x7x7-7-7-x7x7-7-7-|
D|------------------------------|

Chorus
Both Guitars
D|-3-33-3-3-5-55-5-5-2-22-2-2---------------------|
A|-3-33-3-3-7-77-7-7-2-22-2-2---------------------|
F|-4-44-4-4-7-77-7-7-3-33-3-3-4444/6666/7777/9999-|
C|-5-55-5-5-7-77-7-7-4-44-4-4-xxxx/xxxx/xxxx/xxxx-|
G|-5-55-5-5-5-55-5-5-4-44-4-4-2222/4444/5555/7777-|
D|-3-33-3-3----------2-22-2-2---------------------|

Then

Guitar 1
D|-3-33-3-3-5-55-5-5---------------------------------|
A|-3-33-3-3-7-77-7-7---------------------------------|
F|-4-44-4-4-7-77-7-7-3-3-3-3/4-4-4-4/5-5-5-5/6-6-6-6-|
C|-5-55-5-5-7-77-7-7-x-x-x-x/x-x-x-x/x-x-x-x/x-x-x-x-|
G|-5-55-5-5-5-55-5-5-1-1-1-1/2-2-2-2/3-3-3-3/4-4-4-4-|
D|-3-33-3-3------------------------------------------|

Guitar 2
D|-3-33-3-3-5-55-5-5-2-2-2-2-2-2-2-2-2-2-2-2-2-2-2-2-|
A|-3-33-3-3-7-77-7-7-2-2-2-2-2-2-2-2-2-2-2-2-2-2-2-2-|
F|-4-44-4-4-7-77-7-7-3-3-3-3-3-3-3-3-3-3-3-3-3-3-3-3-|
C|-5-55-5-5-7-77-7-7-4-4-4-4-4-4-4-4-4-4-4-4-4-4-4-4-|
G|-5-55-5-5-5-55-5-5-4-4-4-4-4-4-4-4-4-4-4-4-4-4-4-4-|
D|-3-33-3-3----------2-2-2-2-2-2-2-2-2-2-2-2-2-2-2-2-|

Outro
Guitar 1 (Not correct rhythm)
D|--------------------|
A|-101010101010101010-|
F|--8-8-8-8-8-8-8-8-8-|
C|--9-9-9-9-9-9-9-9-9-| x3
G|--9-9-9-9-9-9-9-9-9-|
D|--------------------|

Guitar 1 (Not correct rhythm)
D|--------------------|
A|-101010101010101010-|
F|--8-8-8-8-8-8-8-8-8-|
C|--9-9-9-9-9-9-9-9-9-| x3
G|--9-9-9-9-9-9-9-9-9-|
D|--------------------|

End On
Guitar 1
D|-----|
A|10\--|
F|-8\--|
C|-9\--|
G|-9\--|
D|-----|

Guitar 2
D|-----|
A|10\--|
F|-8\--|
C|-x\--|
G|-9\--|
D|-7\--|

End. Please rate and comment. Thanks.
Comments