Nine Black Alps - Shot Down Chords & Tabs

 

Shot Down Chords & Tabs

Nine Black Alps Chords & Tabs

Version: 2 Type: Tab 0 ratings
1 star 2 stars 3 stars 4 stars 5 stars
comments

Shot Down Tab

   
Artist: nine black alps
tabbed by: jon holmes from england, on 22nd july 2005
song: shot down


ok heres the deal, i don't really know this song enough to do a full tab
but hey. this isnt the full song, theres alot missing but i've 
simply included parts that i know that there may be some confusion about.

please rate this keeping in mind that its not the full song. thanks


the weird chord that keeps popping up: (almost the same as "A major barre" 
but just move your little finger over to fret 8 on b string)

e---|--5--|
b---|--8--|
g---|--6--|  (repeatedly play this to the rhythm of the song)
d---|--5--|
a---|--7--|
e---|--5--|

verse or something:

        f5+c5      A5
e---|--------------------|
b---|--------------------|
g---|--5-5-5-5-----------| x3
d---|--3-3-3-3--7-7-7-7--|
a---|--3-3-3-3--7-7-7-7--|
e---|--1-1-1-1--5-5-5-5--|
[ Tab from: http://www.guitartabs.cc/tabs/n/nine_black_alps/shot_down_tab_ver_2.html ]
           D5        E5
e---|-------------------|
b---|-------------------|
g---|--7-7-7-7-7-77--9--|
d---|--7-7-7-7-7-77--9--|
a---|--5-5-5-5-5-55--7--|
e---|-------------------|

solo (probably wrong but heres a rough outline)

e---|------------------------|
b---|------------------------|
g---|--10-8------------------|
d---|-------11-8--11-8-11----| x3 (has verse as rhythm guitar)
a---|------------------------|
e---|------------------------|

e---|--------------------------------------------|
b---|--------------------------------------------|
g---|--------------------------------------------|
d---|-11--quick slide--13-13-13-13-13-1313--15---|
a---|--------------------------------------------|
e---|--------------------------------------------|


g---|---15-15---15-18-15-15---15-18---| 

thats it i think, feel free to use the other tabs to fill in the gaps, or just do it yourself!
Comments