Nine Black Alps - Shot Down Chords & Tabs

 

Shot Down Chords & Tabs

Nine Black Alps Chords & Tabs

Version: 1 Type: Tab 0 ratings
1 star 2 stars 3 stars 4 stars 5 stars
comments

Shot Down Tab

   
Band: Nine Black Alps
Song: Shot Down
Album: Everything Is

Standard Tuning

E-5-5-5-5-5-5-5-5-5-5---------|
B-5-5-5-5-5-5-5-5-5-5---------|
G-6-6-6-6-6-6-6-6-6-6---------|        x4
D-7-7-7-7-7-7-7-7-7-7---------|
A-7---------------7-7---------|
E-5---------------5-5---------|

F/C      A        F/C          A          F/C     A        D
   Funny how they...could have lived yeah...funny how they really live
   Drag you down and pull you in and tell you nice you'll never win

E-5-5-5-5-5-5-5-5-5-5--------|
B-5-5-5-5-5-5-5-5-5-5--------|
G-6-6-6-6-6-6-6-6-6-6--------|       x4
D-7-7-7-7-7-7-7-7-7-7--------|
A-7---------------7-7--------|
E-5---------------5-5--------|

Pretty good at,letting go it's the, only place you'll ever go,
Prison doors sound like, wedding bells as you, ask for change at the wishing well

D
I don't like this place, I don't like what it's become

E-5-5-5-5-5-5-5-5-5-5--------|
B-5-5-5-5-5-5-5-5-5-5--------|
G-6-6-6-6-6-6-6-6-6-6--------|       x4
D-7-7-7-7-7-7-7-7-7-7--------|
A-7---------------7-7--------|
E-5---------------5-5--------|
                                                                            D            
                                    C
You can hide your face, you can always hide your guns
     G          A
Shot down, spun round, strung out
C     G          A
Still around somehow

D-7-7-7-7-8-8-8-8-9-9-9-9-10-10-10-10

E-5-5-5-5-5-5-5-5-5-5------|
B-5-5-5-5-5-5-5-5-5-5------|
G-6-6-6-6-6-6-6-6-6-6------|     x4
D-7-7-7-7-7-7-7-7-7-7------|
A-7---------------7-7------|
E-5---------------5-5------|
[ Tab from: http://www.guitartabs.cc/tabs/n/nine_black_alps/shot_down_tab.html ]
Solo
E---------------------------------------------------------------------------|
B---------------------------------------------------------------------------|
G5-7b-5------------5----5-7b-5------------5----7-7b-5-----55-5-5h7-7-7----|
D7-------7-7-5-7-5------7-------7-7-5-7-5-----5-------7-77----------------|
A---------------------------------------------------------------------------|
E --------------------------------------------------------------------------|

E---------------------------------------------------------------------------|
B---------------------------------------------------------------------------|
G-7-7-5-5-5h7-7-7/19--------19b-17-----------19b-17----------------19b-17---|
D-----------------------19-19--------19-19-19---------19-19-19-19-----------|
A---------------------------------------------------------------------------|
E---------------------------------------------------------------------------|

E---------------------------------------------------------------------------|
B---------------------------------------------------------------------------|
G---------19b-17-----------19b-17------------------5h7-7-7-7-7-5-5-5h7-7-7--|
D-19-19-19-------19-19-19-19-----19-19-19-17-15/5---------------------------|
A---------------------------------------------------------------------------|
E---------------------------------------------------------------------------|


D
In the human race, there's a space for everyone

E-5-5-5-5-5-5-5-5-5-5-------------|
B-5-5-5-5-5-5-5-5-5-5-------------|
G-6-6-6-6-6-6-6-6-6-6-------------|            x4
D-7-7-7-7-7-7-7-7-7-7-------------|
A-7---------------7-7-------------|
E-5---------------5-5-------------|

                                                                            D            
                                  C          G
You can save yourself, you can always kill your sons, shot down, spun
A
round, strung out

C      G         A
Still around somehow.

D-7-7-7-7-8-8-8-8-9-9-9-9-10-10-10-10

E-5-5-5-5-5-5-5-5-5-          5/1-|
B-5-5-5-5-5-5-5-5-5-          5/1-|
G-6-6-6-6-6-6-6-6-6-  x4      6/2-|
D-7-7-7-7-7-7-7-7-7-          7/3-|
A-7---------------7-          7/3-|
E-5---------------5-          5/1-|
Comments