Nine Black Alps - Not Everyone Chords & Tabs

 

Not Everyone Chords & Tabs

Nine Black Alps Chords & Tabs

Version: 1 Type: Tab 0 ratings
1 star 2 stars 3 stars 4 stars 5 stars
comments

Not Everyone Tab

   
Artist: Nine Black Alps-
Song: Not Everyone
Album: Not Yet Released
Tuning: Down A Whole Step And Drop C- C G C F A D
Tabbed By James Morris
Date: 27.05.05

New British band from Manchester who have released a few brilliant singles and their
debut album is set for release next month. I have tabbed both of the guitars for this
song and I am pretty sure that it is all correct. If not, please correct. 

Intro

Guitar 1
D|-x---------------------------------------|
A|-3~~~~~~~~~~~~~~~~~~~~~~~~~~~~~~~~~~~~~~~|
F|-2~~~~~~~~~~~~~~~~~~~~~~~~~~~~~~~~~~~~~~~|
C|-0~~~~~~~~~~~~~~~~~~~~~~~~~~~~~~~~~~~~~~~| x2
G|-0~~~~~~~~~~~~~~~~~~~~~~~~~~~~~~~~~~~~~~~|
C|-0~~~~~~~~~~~~~~~~~~~~~~~~~~~~~~~~~~~~~~~|

Guitar 2
D|-0-0-0-0-0-0-0-0-0-0-0-0-0-0-0-0-0-0-0-0-|
A|-3-3-3-3-3-3-3-3-3bu(4)(4)(4)(4)(4)(4)(4)|
F|-----------------------------------------|
C|-----------------------------------------|x2
G|-----------------------------------------|
C|-----------------------------------------|

Main Riff (Guitar 2 Continues to play the Above)
D|-----------------------------------------|
A|-----------------------------------------|
F|-7-7-7-7/14-14-14-12-8-8-8-8/12-12-12-10-|
C|-7-7-7-7/14-14-14-12-8-8-8-8/12-12-12-10-| x4
G|-5-5-5-5/12-12-12-10-6-6-6-6/10-10-10--8-|
C|-----------------------------------------|

Verse
Guitar 1
PM-----------------------------------------
D|-----------------------------------------|
A|-----------------------------------------|
F|-7-7-7-7/14-14-14-12-8-8-8-8/12-12-12-10-|
C|-7-7-7-7/14-14-14-12-8-8-8-8/12-12-12-10-| x4
G|-----------------------------------------|
C|-----------------------------------------|

Guitar 2
D|-0---------------------------------------|
A|-3~~~~~~~~~~~~~~~~~~~~~~~~~~~~~~~~~~~~~~~|
F|-----------------------------------------|
C|-----------------------------------------| x4
G|-----------------------------------------|
C|-----------------------------------------|

Second Part Of Verse
Guitar 1
D|-----------------------------------------|
A|-----------------------------------------|
F|-7-7-7-7/14-14-14-12-8-8-8-8/12-12-12-10-|
C|-7-7-7-7/14-14-14-12-8-8-8-8/12-12-12-10-| x4
G|-5-5-5-5/12-12-12-10-6-6-6-6/10-10-10--8-|
C|-----------------------------------------|

Guitar 2
D|-0-0-0-0-0-0-0-0-0-0-0-0-0-0-0-0-0-0-0-0-|
A|-3-3-3-3-3-3-3-3-3bu(4)(4)(4)(4)(4)(4)(4)|
F|-----------------------------------------|
C|-----------------------------------------|
G|-----------------------------------------|
C|-----------------------------------------|

Pre-Chorus
Both Guitars
D|-----------------------------------------|
A|-----------------------------------------|
F|------------------10-10-10-10-10--10--x--|
C|-7-7-7-7-7---7--x-10-10-10-10-10--10--x--| x2
G|-7-7-7-7-7---7--x--8--8--8--8--8---8--x--|
C|-7-7-7-7-7---7--x------------------------|

D|-----------------------------------|
A|-----------------------------------|
F|-------------------9-9-9-9-9-9-9-9-|
C|-8-8-8-8-8---8--x-9-9-9-9-9-9-9-9-|
G|-8-8-8-8-8---8--x--7-7-7-7-7-7-7-7-|
C|-8-8-8-8-8---8--x------------------|

Chorus
Both Guitars
D|------------------------------------|
A|------------------------------------|
F|-7-7x--------------7-7--------------|
C|-7-7x6-6x5-5-3-3-3-7-7x6-6x5-5-3-x3-| x3
G|-5-5x6-6x5-5-3-3-3-5-5x6-6x5-5-3-x3-|
C|-0-0x6-6x5-5-3-3-3-0-0x6-6x5-5-3-x3-|

Then
D|--------------------------------|
A|--------------------------------|
F|--------------------------------|
C|-5-5-5-5-5--x---8-8-8-8x7-7-7-7-|
G|-5-5-5-5-5--x---8-8-8-8x7-7-7-7-|
C|-5-5-5-5-5--x---8-8-8-8x7-7-7-7-|

Bridge
Guitar 1
D|-x---------------------------------------|
A|-3~~~~~~~~~~~~~~~~~~~~~~~~~~~~~~~~~~~~~~~|
F|-2~~~~~~~~~~~~~~~~~~~~~~~~~~~~~~~~~~~~~~~|
C|-0~~~~~~~~~~~~~~~~~~~~~~~~~~~~~~~~~~~~~~~| x2
G|-0~~~~~~~~~~~~~~~~~~~~~~~~~~~~~~~~~~~~~~~|
C|-0~~~~~~~~~~~~~~~~~~~~~~~~~~~~~~~~~~~~~~~|

Guitar 2
D|-0-0-0-0-0-0-0-0-0-0-0-0-0-0-0-0-0-0-0-0-|
A|-3-3-3-3-3-3-3-3-3bu(4)(4)(4)(4)(4)(4)(4)|
F|-----------------------------------------|
C|-----------------------------------------|x2
G|-----------------------------------------|
C|-----------------------------------------|

Verse
Guitar 1
PM-----------------------------------------
D|-----------------------------------------|
A|-----------------------------------------|
F|-7-7-7-7/14-14-14-12-8-8-8-8/12-12-12-10-|
C|-7-7-7-7/14-14-14-12-8-8-8-8/12-12-12-10-| x4
G|-----------------------------------------|
C|-----------------------------------------|

Guitar 2
D|-----------------------------------------|
A|-3~~~~~~~~~~~~~~~~~~~~~~~~~~~~~~~~~~~~~~~|
F|-----------------------------------------|
C|-----------------------------------------| x4
G|-----------------------------------------|
C|-----------------------------------------|
[ Tab from: http://www.guitartabs.cc/tabs/n/nine_black_alps/not_everyone_tab.html ]
Second Part Of Verse
Guitar 1
D|-----------------------------------------|
A|-----------------------------------------|
F|-7-7-7-7/14-14-14-12-8-8-8-8/12-12-12-10-|
C|-7-7-7-7/14-14-14-12-8-8-8-8/12-12-12-10-| x4
G|-5-5-5-5/12-12-12-10-6-6-6-6/10-10-10--8-|
C|-----------------------------------------|

Guitar 2
D|-0-0-0-0-0-0-0-0-0-0-0-0-0-0-0-0-0-0-0-0-|
A|-3-3-3-3-3-3-3-3-3bu(4)(4)(4)(4)(4)(4)(4)|
F|-----------------------------------------|
C|-----------------------------------------|
G|-----------------------------------------|
C|-----------------------------------------|

Pre-Chorus
Both Guitars
D|-----------------------------------------|
A|-----------------------------------------|
F|------------------10-10-10-10-10--10--x--|
C|-7-7-7-7-7---7--x-10-10-10-10-10--10--x--| x2
G|-7-7-7-7-7---7--x--8--8--8--8--8---8--x--|
C|-7-7-7-7-7---7--x------------------------|

D|-----------------------------------|
A|-----------------------------------|
F|-------------------9-9-9-9-9-9-9-9-|
C|-8-8-8-8-8---8--x-9-9-9-9-9-9-9-9-|
G|-8-8-8-8-8---8--x--7-7-7-7-7-7-7-7-|
C|-8-8-8-8-8---8--x------------------|

Chorus
Both Guitars
D|------------------------------------|
A|------------------------------------|
F|-7-7x--------------7-7--------------|
C|-7-7x6-6x5-5-3-3-3-7-7x6-6x5-5-3-x3-| x3
G|-5-5x6-6x5-5-3-3-3-5-5x6-6x5-5-3-x3-|
C|-0-0x6-6x5-5-3-3-3-0-0x6-6x5-5-3-x3-|

Then
D|--------------------------------|
A|--------------------------------|
F|--------------------------------|
C|-5-5-5-5-5--x---8-8-8-8x7-7-7-7-|
G|-5-5-5-5-5--x---8-8-8-8x7-7-7-7-|
C|-5-5-5-5-5--x---8-8-8-8x7-7-7-7-|

Bridge-Both?
D|-----------------------------------------------------------------|
A|-----------------------------------------------------------------|
F|-7-7-7-7-7-7-7-7-5-5-5-5-7-7-7-7-5-5-5-5-5-5-5-5-7-7-7-7-5-5-5-5-|
C|-7-7-7-7-7-7-7-7-5-5-5-5-7-7-7-7-5-5-5-5-5-5-5-5-7-7-7-7-5-5-5-5-|x2
G|-5-5-5-5-5-5-5-5-5-5-5-5-5-5-5-5-5-5-5-5-5-5-5-5-5-5-5-5-5-5-5-5-|
C|-----------------------------------------------------------------|

Guitar 1 - Scratches with feedback 

Guitar 2
D|-----------------------------------------------------------------|
A|-----------------------------------------------------------------|
F|-7-7-7-7-7-7-7-7-7-7-7-7-7-7-7-7-7-7-7-7-7-7-7-7-5-5-5-5-4-4-4-4-|
C|-7-7-7-7-7-7-7-7-7-7-7-7-7-7-7-7-7-7-7-7-7-7-7-7-5-5-5-5-4-4-4-4-|
G|-5-5-5-5-5-5-5-5-5-5-5-5-5-5-5-5-5-5-5-5-5-5-5-5-3-3-3-3-2-2-2-2-|
C|-0-0-0-0-0-0-0-0-0-0-0-0-0-0-0-0-0-0-0-0-0-0-0-0-----------------|

Guitar 1 - Scratch strings with wooden stick/with feedback

Guitar 2
D|-------------------------------------------------|
A|-------------------------------------------------|
F|-7-7-7-7-7-7-7-7-5-5-5-5-5-5-5-5-4-4-4-4-4-4-4-4-|
C|-7-7-7-7-7-7-7-7-5-5-5-5-5-5-5-5-4-4-4-4-4-4-4-4-|
G|-5-5-5-5-5-5-5-5-3-3-3-3-3-3-3-3-2-2-2-2-2-2-2-2-|
C|-------------------------------------------------|

Pre-Chorus
Guitars 1 And 2 (Heavy Distortion) 
D|-----------------------------------------|
A|-----------------------------------------|
F|-2-2-2-2-2-2-2-2/14-14-14-14-14-14-14-14-|
C|-2-2-2-2-2-2-2-2/14-14-14-14-14-14-14-14-|
G|-0-0-0-0-0-0-0-0--0--0--0--0--0--0--0--0-|
C|-----------------------------------------|

Chorus
Both Guitars
D|------------------------------------|
A|------------------------------------|
F|-7-7x--------------7-7--------------|
C|-7-7x6-6x5-5-3-3-3-7-7x6-6x5-5-3-x3-| x3
G|-5-5x6-6x5-5-3-3-3-5-5x6-6x5-5-3-x3-|
C|-0-0x6-6x5-5-3-3-3-0-0x6-6x5-5-3-x3-|

Then
D|--------------------------------|
A|--------------------------------|
F|--------------------------------|
C|-5-5-5-5-5--x---8-8-8-8x7-7-7-7-|
G|-5-5-5-5-5--x---8-8-8-8x7-7-7-7-|
C|-5-5-5-5-5--x---8-8-8-8x7-7-7-7-|

Guitar 1
D|------------------------------------|
A|------------------------------------|
F|-7-7x--------------7-7--------------|
C|-7-7x6-6x5-5-3-3-3-7-7x6-6x5-5-3-x3-| x3
G|-5-5x6-6x5-5-3-3-3-5-5x6-6x5-5-3-x3-|
C|-0-0x6-6x5-5-3-3-3-0-0x6-6x5-5-3-x3-|

Guitar 2
D|-0-0-0-0-0-0-0-0-0-0-0-0-0-0-0-0-0-0-0-0-|
A|-3-3-3-3-3-3-3-3-3bu(4)(4)(4)(4)(4)(4)(4)|
F|-----------------------------------------|
C|-----------------------------------------|
G|-----------------------------------------|
C|-----------------------------------------|

Then
Both Guitars
D|--------------------------------|
A|--------------------------------|
F|--------------------------------|
C|-5-5-5-5-5--x---8-8-8-8x7-7-7-7-|
G|-5-5-5-5-5--x---8-8-8-8x7-7-7-7-|
C|-5-5-5-5-5--x---8-8-8-8x7-7-7-7-|

End On
Guitar 1
D|-x---------------------------------------|
A|-3~~~~~~~~~~~~~~~~~~~~~~~~~~~~~~~~~~~~~~~|
F|-2~~~~~~~~~~~~~~~~~~~~~~~~~~~~~~~~~~~~~~~|
C|-0~~~~~~~~~~~~~~~~~~~~~~~~~~~~~~~~~~~~~~~| 
G|-0~~~~~~~~~~~~~~~~~~~~~~~~~~~~~~~~~~~~~~~|
C|-0~~~~~~~~~~~~~~~~~~~~~~~~~~~~~~~~~~~~~~~|

Guitar 2
D|-0---------------------------------------|
A|-3~~~~~~~~~~~~~~~~~~~~~~~~~~~~~~~~~~~~~~~|
F|-----------------------------------------|
C|-----------------------------------------|
G|-----------------------------------------|
C|-----------------------------------------|

Finish. Please rate, comment and correct if necessary. Thanks.

Enjoy.
Comments