Nine Black Alps - Not Everyone Chords & Tabs

 

Not Everyone Chords & Tabs

Nine Black Alps Chords & Tabs

Version: 1 Type: Bass Tab 0 ratings
1 star 2 stars 3 stars 4 stars 5 stars
comments

Not Everyone Bass Tab

   
Artist: Nine Black Alps
Song: Not Everyone
Album: Everything Is
Tuning: Drop C - C G C F
Tabbed By James Morris

Intro
F|----------------------------------------|
C|----------------------------------------|
G|----------------------------------------| x2
C|-0~~~~~~~~~~~~~~~~~~~~~~~~~~~~~~~~~~~~~~|

Main Riff
F|----------------------------------------|
C|----------------------------------------| 
G|-5-5-5-5/12-12-12-10-6-6-6-6/10-10-10-8-| x4
C|----------------------------------------|

Verse
F|----------------------------------------|
C|----------------------------------------| 
G|-5-5-5-5/12-12-12-10-6-6-6-6/10-10-10-8-| x8
C|----------------------------------------|

Pre-Chorus
F|-------------------------------|
C|-------------------------------| x2
G|-----------------8-8-8-8-8--8--|
C|-7-7-7-7-7--7------------------|

F|-------------------------------|
C|-------------------------------|
G|---------------7-7-7-7-7-7-7-7-|
C|-8-8-8-8-8--8------------------|

Chorus
F|-------------------|
C|-----6-6x5-5-3-3-3-| x3
G|-5-5x--------------|
C|-------------------|

F|------------------------------|
C|------------------------------|
G|------------------------------|
C|-5-5-5-5-5----8-8-8-8x7-7-7-7-|

Bridge
F|----------------------------------------|
C|----------------------------------------|
G|----------------------------------------| x2
C|-0~~~~~~~~~~~~~~~~~~~~~~~~~~~~~~~~~~~~~~|

Verse
F|----------------------------------------|
C|----------------------------------------| 
G|-5-5-5-5/12-12-12-10-6-6-6-6/10-10-10-8-| x8
C|----------------------------------------|

Pre-Chorus
F|-------------------------------|
C|-------------------------------| x2
G|-----------------8-8-8-8-8--8--|
C|-7-7-7-7-7--7------------------|

F|-------------------------------|
C|-------------------------------|
G|---------------7-7-7-7-7-7-7-7-|
C|-8-8-8-8-8--8------------------|

Chorus
F|-------------------|
C|-----6-6x5-5-3-3-3-| x3
G|-5-5x--------------|
C|-------------------|

F|------------------------------|
C|------------------------------|
G|------------------------------|
C|-5-5-5-5-5----8-8-8-8x7-7-7-7-|

Bridge
F|-----------------------------------------------------------------|
C|-----------------------------------------------------------------|
G|-5~~~~~~~~~~~~~~-------------------------------------------------|
C|-----------------------------------------------------------------|
[ Tab from: http://www.guitartabs.cc/tabs/n/nine_black_alps/not_everyone_btab.html ]
F|-----------------------------------------------------------------|
C|-----------------------------------------------------------------|
G|-5~~~~~~~~~~~~~~---------------------------------------------3-2-|
C|-----------------------------------------------------------------|

F|-----------------------------------------------------------------|
C|-----------------------------------------------------------------|
G|-5-5-5-5-5-5-5-5-5-5-5-5-5-5-5-5-5-5-5-5-5-5-5-5-3-3-3-3-2-2-2-2-|
C|-----------------------------------------------------------------|

F|-------------------------------------------------|
C|-------------------------------------------------|
G|-5-5-5-5-5-5-5-5-3-3-3-3-3-3-3-3-2-2-2-2-2-2-2-2-|
C|-------------------------------------------------|

Pre-Chorus               12=Twelve 
F|----------------------------------|
C|----------------------------------|
G|-0-0-0-0-0-0-0-0/1212121212121212-| 
C|----------------------------------|

Chorus
F|-------------------|
C|-----6-6x5-5-3-3-3-| x3
G|-5-5x--------------|
C|-------------------|

F|------------------------------|
C|------------------------------|
G|------------------------------|
C|-5-5-5-5-5----8-8-8-8x7-7-7-7-|

F|-------------------|
C|-----6-6x5-5-3-3-3-| x3
G|-5-5x--------------|
C|-------------------|

F|------------------------------|
C|------------------------------|
G|------------------------------|
C|-5-5-5-5-5----8-8-8-8x7-7-7-7-|

End On
F|--------------------|
C|--------------------|
G|--------------------|
C|-0~~~~~~~~~~~~~~~~~~|

End. Please rate and comment. Thanks.

Lyrics:

Hey, you're not the first,
You're not the last,
To Hold Me Back.

Yeah, it's such a shame,
It's such a waste,
To hesitate.

Now, I've seen the light,
I've heard the sound,
I've written all this down.

Not everyone deserves the sun,
Not everyone lives what you learn,
Not everyone can turn you on, yeah.

Strange, what people say,
About your face,
The ways you've changed.

It's hard, to fall behind,
They bleed you dry,
And blow your mind,

Now, you've lost control,
You've let it show,
And now everyone knows.

Not everyone deserves the sun,
Not everyone lives what you learn,
Not everyone can turn you on, yeah.

Say my name
Just say my name
Just say my name
Just say

Not everyone deserves the sun,
Not everyone lives what you learn,
Not everyone can turn you on, yeah.

Not everyone deserves a life,
Not everyone deserves to die,
Not everyone can bleed you dry, yeah.
Comments