Nine Black Alps - Ironside Chords & Tabs

 

Ironside Chords & Tabs

Nine Black Alps Chords & Tabs

Version: 1 Type: Tab 0 ratings
1 star 2 stars 3 stars 4 stars 5 stars
comments

Ironside Tab

   
Nine Black Alps-Ironside
Tabbed By Sam King
they play it tuned down but ive tabbed it in standard to save the hassle, i think its
accurate. you still have to tune down to D for this song.

Intro
e-----------------|-----------------|-------------------|
b-----------------|-----------------|-------------------|
g-----------------|-----------------|-------------------|
D-5------5-7-8-13-|-5------5-7-8-13-|-10-----10-13-12-8-|
A-5------5-7-8-13-|-5------5-7-8-13-|-10-----10-13-12-8-|
D-5------5-7-8-13-|-5------5-7-8-13-|-10-----10-13-12-8-|

e----------------|
b----------------|
g----------------|
D-5------5-8-7-3-|
A-5------5-8-7-3-|
D-5------5-8-7-3-|

verse (similar to the intro)
e-----------------|-----------------|-------------------|
b-----------------|-----------------|-------------------|
g-----------------|-----------------|-------------------|
D-----------------|-----------------|-------------------|
A-----------------|-----------------|-------------------|
D-5-----5-7-8-13--|-5-----5-7-8-13--|-10----10-13-12-8--|

e----------------|
b----------------|
g----------------|
D----------------|
A----------------|
D-5-----5-8-7-3--|

chorus
e-------------|-------------|------------|--------------|
b-8-----3-----|-5-----------|-8-----3----|-7-----8--10--|
g-8-----3-----|-5-----------|-8-----3----|-7-----8--10--|
D-8-----3-----|-5-----5-----|-8-----3----|-7-----8--10--|
A-6-----1-----|-3-----5-----|-6-----1----|-5-----6--8---|
D-------------|-------5-----|------------|--------------|

e-------------|-------------|------------|
b-8-----3-----|-5-----------|-8-----7----|
g-8-----3-----|-5-----------|-8-----7----|
D-8-----3-----|-5-----5-----|-8-----7----|
A-6-----1-----|-3-----5-----|-6-----5----|
D-------------|-------5-----|------------|
[ Tab from: http://www.guitartabs.cc/tabs/n/nine_black_alps/ironside_tab.html ]
middle
e-6-------6-------|
b---8-------8-----|
g-----7-------7---| repeat until just before solo
D-------8-------8-|
A-----------------|
D-----------------|

e-----------------|
b-----------------|
g-----------------|
D-5-5-5-5-5-5-5-5-|
A-5-5-5-5-5-5-5-5-|
D-5-5-5-5-5-5-5-5-|

solo
e------------------------|------------------------|
b------------------------|-------6----------------|
g-12p10-3---12p10-3--5-3-|-5(7)---(7)5-3----------|
D------------------------|----------------5-3-5---|
A------------------------|------------------------|
D------------------------|------------------------|

e------------------------|------------------------|
b------------------------|-------6----------------|
g-12p10-3---12p10-3--5-3-|-5(7)---(7)5-3----------|
D------------------------|----------------5-3-5---|
A------------------------|------------------------|
D------------------------|------------------------|

2nd solo
e-------------|-----------------------|-------------|
b-13p11-------|-----------------------|-13p11-------|
g-------10----|-12--12-10-12(13)12p10-|-------10----|
D-------------|-----------------------|-------------|
A-------------|-----------------------|-------------|
D-------------|-----------------------|-------------|

e-----------------|------------|-----------------------|
b-----------------|-13p11------|-----------------------|
g-10--11--12--14--|-------10---|-12--12-10-12(13)12p10-|
D-----------------|------------|-----------------------|
A-----------------|------------|-----------------------|
D-----------------|------------|-----------------------|

e-----------------|--------|
b-----------------|--------|
g-13---13-12---12-|--------|
D-----------------|-9------|
A-----------------|--------|
D-----------------|--------|
Comments