Nine Black Alps - Headlights Chords & Tabs

 

Headlights Chords & Tabs

Nine Black Alps Chords & Tabs

Version: 2 Type: Tab

Headlights Tab

Nine Black Alps-Headlights
from the album everything is
Tabbed by Sam King
Tune down a tone (DGCFAD)

Intro

d-7-x-7---x-x-x-|
a-8-x-8---x-x-x-|
f-9-x-9---x-x-x-| x 4
C-9-x-9---x-x-x-|
G-7-x-7---x-x-x-|
D---------------|

Verse chords

d-7------|-7------|-7------|-7------|-3------|-3------|
a-8------|-8------|-8------|-8------|-5------|-5------|
f-9------|-9------|-9------|-9------|-5------|-5------|
C-9------|-9------|-9------|-9------|-5------|-5------|
G-7------|-6------|-7------|-6------|-3------|-4------|
D--------|--------|--------|--------|--------|--------|

d-3------|--------|
a-5------|--------|
f-5------|-2------| x 2
C-5------|-2------|
G-3------|-0------|
D--------|--------|

Chorus

d--------|--------|--------|--------|--------|--------|
a--------|--------|--------|--------|--------|--------|
f--------|--------|--------|--------|--------|--------|
C-9------|-7------|-5------|-4------|-2------|-3------|
G-10-----|-9------|-7------|-5------|-3------|-4------|
D--------|--------|--------|--------|--------|--------|

d--------|--------|
a--------|--------|
f--------|--------|
C-2------|-2------|
G-3------|-0------|
D--------|--------|

Verse two (2nd guitar part)
[ Tab from: http://www.guitartabs.cc/tabs/n/nine_black_alps/headlights_tab_ver_2.html ]
(fast picking with delay)
d-12----|-12----|-12----|-12----|-14----|-14----|
a-------|-------|-------|-------|-------|-------|
f-------|-------|-------|-------|-------|-------|
C-------|-------|-------|-------|-------|-------|
G-------|-------|-------|-------|-------|-------|
D-------|-------|-------|-------|-------|-------|

d-15----|-14----|
a-------|-------|
f-------|-------|
C-------|-------|
G-------|-------|
D-------|-------|

Guitar solo
d-----------|------|------|-------------|-----------|
a-15--13----|------|------|-15--13---11-|-10--8-----|
f-x---x-----|------|------|-x---x----x--|-x---x-----|
C-12--10----|------|------|-12--10---8--|-7---5-----|
G-----------|------|------|-------------|-----------|
D-----------|------|------|-------------|-----------|

d------|----------|----------|
a------|-8----8-8-|-5----5-5-|
f------|-x----x-x-|-x----x-x-|
C------|-5----5-5-|-2----2-2-|
G------|----------|----------|
D------|----------|----------|

d-----------|------|------|-------------|-----------|
a-15--13----|------|------|-15--13---11-|-10--11----|
f-x---x-----|------|------|-x---x----x--|-x---x-----|
C-12--10----|------|------|-12--10---8--|-7---8-----|
G-----------|------|------|-------------|-----------|
D-----------|------|------|-------------|-----------|

d------|------------|----------|
a------|-11---11-11-|-8----8-8-|
f------|-x----x--x--|-x----x-x-|
C------|-8----8--8--|-5----5-5-|
G------|------------|----------|
D------|------------|----------|