Nine Black Alps - Headlights Chords & Tabs

 

Headlights Chords & Tabs

Nine Black Alps Chords & Tabs

Version: 1 Type: Tab 0 ratings
1 star 2 stars 3 stars 4 stars 5 stars
comments

Headlights Tab

   
Artist: Nine Black Alps
Song: Headlights
Album: Everything Is
Tuning: Down A Whole Step (D G C F A D)
Tabbed by James Morris
Date: 28.06.2005

Intro
Guitar 1
D|-7-x-7-x-x-x-7-x-7-x-x-x-7-x-7-x-x-x-7-x-7-x-x-x-|
A|-8-x-8-x-x-x-8-x-8-x-x-x-8-x-8-x-x-x-8-x-8-x-x-x-|
F|-9-x-9-x-x-x-9-x-9-x-x-x-9-x-9-x-x-x-9-x-9-x-x-x-|
C|-9-x-9-x-x-x-9-x-9-x-x-x-9-x-9-x-x-x-9-x-9-x-x-x-|
G|-7-x-7-x-x-x-7-x-7-x-x-x-7-x-7-x-x-x-7-x-7-x-x-x-|
D|-7-x-7-x-x-x-7-x-7-x-x-x-7-x-7-x-x-x-7-x-7-x-x-x-|

Guitar 2 (Slightly Louder)
D|-7-x-7-x-x-x-7-x-7-x-x-x-7-x-7-x-x-x-7-x-7-x-x-x-|
A|-8-x-8-x-x-x-8-x-8-x-x-x-8-x-8-x-x-x-8-x-8-x-x-x-|
F|-9-x-9-x-x-x-9-x-9-x-x-x-9-x-9-x-x-x-9-x-9-x-x-x-|
C|-9-x-9-x-x-x-9-x-9-x-x-x-9-x-9-x-x-x-9-x-9-x-x-x-|
G|-------------------------------------------------|
D|-------------------------------------------------|

Verse
Guitar 1
D|--------------------------------------|
A|-8-88-8-8-8-88-8-8-8-88-8-8-8-88-8-8\-|
F|-9-99-9-9-9-99-9-9-9-99-9-9-9-99-9-9\-|
C|-9-99-9-9-9-99-9-9-9-99-9-9-9-99-9-9\-|
G|-7-77-7-7\6-66-6-6/7-77-7-7\6-66-6-6\-|
D|--------------------------------------|

D|-------------------------------------|
A|-4-44-4-4/5-55-5-5\4-44-4-4\1-11-1-1-|
F|-5-55-5-5/6-66-6-6\5-55-5-5\2-22-2-2-|
C|-5-55-5-5/6-66-6-6\5-55-5-5\2-22-2-2-|
G|-3-33-3-3/4-44-4-4\3-33-3-3\0-00-0-0-|
D|-------------------------------------|

Guitar 2
D|-7-77-7-7\6-66-6-6\7-77-7-7\6-66-6-6\-|
A|-8-88-8-8\7-77-7-7\8-88-8-8\7-77-7-7\-|
F|-9-99-9-9\8-88-8-8\9-99-9-9\8-88-8-8\-|
C|-9-99-9-9\8-88-8-8\9-99-9-9\8-88-8-8\-|
G|--------------------------------------|
D|--------------------------------------|

D|-3-33-3-3/4-44-4-4\3-33-3-3\0-00-0-0-|
A|-4-44-4-4/5-55-5-5\4-44-4-4\1-11-1-1-|
F|-5-55-5-5/6-66-6-6\5-55-5-5\2-22-2-2-|
C|-5-55-5-5/6-66-6-6\5-55-5-5\2-22-2-2-|
G|-------------------------------------|
D|-------------------------------------|

Chorus
Guitar 1
D|-3-33-3-3-2-22-2-2----------5-55-5-5-|
A|-3-33-3-3-2-22-2-2-8-88-8-8-6-66-6-6-|
F|-4-44-4-4-3-33-3-3-9-99-9-9-7-77-7-7-|
C|-5-55-5-5-4-44-4-4-9-99-9-9-7-77-7-7-|
G|-5-55-5-5-4-44-4-4-7-77-7-7-5-55-5-5-|
D|-3-33-3-3-2-22-2-2-0-00-0-0----------|

D|-------------------------------------|
A|-4-44-4-4/5-55-5-5\4-44-4-4\1-11-1-1-|
F|-5-55-5-5/6-66-6-6\5-55-5-5\2-22-2-2-|
C|-5-55-5-5/6-66-6-6\5-55-5-5\2-22-2-2-|
G|-3-33-3-3/4-44-4-4\3-33-3-3\0-00-0-0-|
D|-------------------------------------|

D|-3-33-3-3-2-22-2-2----------5-55-5-5-|
A|-3-33-3-3-2-22-2-2-8-88-8-8-6-66-6-6-|
F|-4-44-4-4-3-33-3-3-9-99-9-9-7-77-7-7-|
C|-5-55-5-5-4-44-4-4-9-99-9-9-7-77-7-7-|
G|-5-55-5-5-4-44-4-4-7-77-7-7-5-55-5-5-|
D|-3-33-3-3-2-22-2-2-0-00-0-0----------|

D|-------------------------------------|
A|-4-44-4-4/5-55-5-5\4-44-4-4\1-11-1-1-|
F|-5-55-5-5/6-66-6-6\5-55-5-5\2-22-2-2-|
C|-5-55-5-5/6-66-6-6\5-55-5-5\2-22-2-2-|
G|-3-33-3-3/4-44-4-4\3-33-3-3\0-00-0-0-|
D|-------------------------------------|

D|-5-x-5-x-5-5-5-5\6-x-6-x-6-6-6-6-|
A|-6-x-6-x-6-6-6-6\7-x-7-x-7-7-7-7-|
F|-7-x-7-x-7-7-7-7\8-x-8-x-8-8-8-8-|
C|-7-x-7-x-7-7-7-7\8-x-8-x-8-8-8-8-|
G|-5-x-5-x-5-5-5-5\6-x-6-x-6-6-6-6-|
D|-5-x-5-x-5-5-5-5\6-x-6-x-6-6-6-6-|

Chorus 
Guitar 2
D|-3-33-3-3-2-22-2-2-0-00-0-0-5-55-5-5-|
A|-3-33-3-3-2-22-2-2-0-00-0-0-6-66-6-6-|
F|-4-44-4-4-3-33-3-3-1-11-1-1-7-77-7-7-|
C|-5-55-5-5-4-44-4-4-2-22-2-2-7-77-7-7-|
G|-------------------------------------|
D|-------------------------------------|

D|-3-33-3-3/4-44-4-4\3-33-3-3/0-00-0-0-|
A|-4-44-4-4/5-55-5-5\4-44-4-4\1-11-1-1-|
F|-5-55-5-5/6-66-6-6\5-55-5-5\2-22-2-2-|
C|-5-55-5-5/6-66-6-6\5-55-5-5\2-22-2-2-|
G|-------------------------------------|
D|-------------------------------------|

D|-3-33-3-3-2-22-2-2-0-00-0-0-5-55-5-5-|
A|-3-33-3-3-2-22-2-2-0-00-0-0-6-66-6-6-|
F|-4-44-4-4-3-33-3-3-1-11-1-1-7-77-7-7-|
C|-5-55-5-5-4-44-4-4-2-22-2-2-7-77-7-7-|
G|-------------------------------------|
D|-------------------------------------|

D|-3-33-3-3/4-44-4-4\3-33-3-3/0-00-0-0-|
A|-4-44-4-4/5-55-5-5\4-44-4-4\1-11-1-1-|
F|-5-55-5-5/6-66-6-6\5-55-5-5\2-22-2-2-|
C|-5-55-5-5/6-66-6-6\5-55-5-5\2-22-2-2-|
G|-------------------------------------|
D|-------------------------------------|

D|-5-x-5-x-5-5-5-5\6-x-6-x-6-6-6-6-|
A|-6-x-6-x-6-6-6-6\7-x-7-x-7-7-7-7-|
F|-7-x-7-x-7-7-7-7\8-x-8-x-8-8-8-8-|
C|-7-x-7-x-7-7-7-7\8-x-8-x-8-8-8-8-|
G|---------------------------------|
D|---------------------------------|

Bridge
Guitar 1
D|-7-x-7-x-x-x-7-x-7-x-x-x-7-x-7-x-x-x-7-x-7-x-x-x-|
A|-8-x-8-x-x-x-8-x-8-x-x-x-8-x-8-x-x-x-8-x-8-x-x-x-|
F|-9-x-9-x-x-x-9-x-9-x-x-x-9-x-9-x-x-x-9-x-9-x-x-x-|
C|-9-x-9-x-x-x-9-x-9-x-x-x-9-x-9-x-x-x-9-x-9-x-x-x-|
G|-7-x-7-x-x-x-7-x-7-x-x-x-7-x-7-x-x-x-7-x-7-x-x-x-|
D|-7-x-7-x-x-x-7-x-7-x-x-x-7-x-7-x-x-x-7-x-7-x-x-x-|

Guitar 2 (Slightly Louder)
D|-7-x-7-x-x-x-7-x-7-x-x-x-7-x-7-x-x-x-7-x-7-x-x-x-|
A|-8-x-8-x-x-x-8-x-8-x-x-x-8-x-8-x-x-x-8-x-8-x-x-x-|
F|-9-x-9-x-x-x-9-x-9-x-x-x-9-x-9-x-x-x-9-x-9-x-x-x-|
C|-9-x-9-x-x-x-9-x-9-x-x-x-9-x-9-x-x-x-9-x-9-x-x-x-|
G|-------------------------------------------------|
D|-------------------------------------------------|

Verse
Guitar 1
D|--------------------------------------|
A|-8-88-8-8-8-88-8-8-8-88-8-8-8-88-8-8\-|
F|-9-99-9-9-9-99-9-9-9-99-9-9-9-99-9-9\-|
C|-9-99-9-9-9-99-9-9-9-99-9-9-9-99-9-9\-|
G|-7-77-7-7\6-66-6-6/7-77-7-7\6-66-6-6\-|
D|--------------------------------------|

D|-------------------------------------|
A|-4-44-4-4/5-55-5-5\4-44-4-4\1-11-1-1-|
F|-5-55-5-5/6-66-6-6\5-55-5-5\2-22-2-2-|
C|-5-55-5-5/6-66-6-6\5-55-5-5\2-22-2-2-|
G|-3-33-3-3/4-44-4-4\3-33-3-3\0-00-0-0-|
D|-------------------------------------|

Guitar 2
D|-7-77-7-7\6-66-6-6\7-77-7-7\6-66-6-6\-|
A|-8-88-8-8\7-77-7-7\8-88-8-8\7-77-7-7\-|
F|-9-99-9-9\8-88-8-8\9-99-9-9\8-88-8-8\-|
C|-9-99-9-9\8-88-8-8\9-99-9-9\8-88-8-8\-|
G|--------------------------------------|
D|--------------------------------------|

D|-3-33-3-3/4-44-4-4\3-33-3-3\0-00-0-0-|
A|-4-44-4-4/5-55-5-5\4-44-4-4\1-11-1-1-|
F|-5-55-5-5/6-66-6-6\5-55-5-5\2-22-2-2-|
C|-5-55-5-5/6-66-6-6\5-55-5-5\2-22-2-2-|
G|-------------------------------------|
D|-------------------------------------|

Chorus
Guitar 1
D|-3-33-3-3-2-22-2-2----------5-55-5-5-|
A|-3-33-3-3-2-22-2-2-8-88-8-8-6-66-6-6-|
F|-4-44-4-4-3-33-3-3-9-99-9-9-7-77-7-7-|
C|-5-55-5-5-4-44-4-4-9-99-9-9-7-77-7-7-|
G|-5-55-5-5-4-44-4-4-7-77-7-7-5-55-5-5-|
D|-3-33-3-3-2-22-2-2-0-00-0-0----------|
[ Tab from: http://www.guitartabs.cc/tabs/n/nine_black_alps/headlights_tab.html ]
D|-------------------------------------|
A|-4-44-4-4/5-55-5-5\4-44-4-4\1-11-1-1-|
F|-5-55-5-5/6-66-6-6\5-55-5-5\2-22-2-2-|
C|-5-55-5-5/6-66-6-6\5-55-5-5\2-22-2-2-|
G|-3-33-3-3/4-44-4-4\3-33-3-3\0-00-0-0-|
D|-------------------------------------|

D|-3-33-3-3-2-22-2-2----------5-55-5-5-|
A|-3-33-3-3-2-22-2-2-8-88-8-8-6-66-6-6-|
F|-4-44-4-4-3-33-3-3-9-99-9-9-7-77-7-7-|
C|-5-55-5-5-4-44-4-4-9-99-9-9-7-77-7-7-|
G|-5-55-5-5-4-44-4-4-7-77-7-7-5-55-5-5-|
D|-3-33-3-3-2-22-2-2-0-00-0-0----------|

D|-------------------------------------|
A|-4-44-4-4/5-55-5-5\4-44-4-4\1-11-1-1-|
F|-5-55-5-5/6-66-6-6\5-55-5-5\2-22-2-2-|
C|-5-55-5-5/6-66-6-6\5-55-5-5\2-22-2-2-|
G|-3-33-3-3/4-44-4-4\3-33-3-3\0-00-0-0-|
D|-------------------------------------|

D|-5-x-5-x-5-5-5-5\6-x-6-x-6-6-6-6-|
A|-6-x-6-x-6-6-6-6\7-x-7-x-7-7-7-7-|
F|-7-x-7-x-7-7-7-7\8-x-8-x-8-8-8-8-|
C|-7-x-7-x-7-7-7-7\8-x-8-x-8-8-8-8-|
G|-5-x-5-x-5-5-5-5\6-x-6-x-6-6-6-6-|
D|-5-x-5-x-5-5-5-5\6-x-6-x-6-6-6-6-|

Chorus 
Guitar 2
D|-3-33-3-3-2-22-2-2-0-00-0-0-5-55-5-5-|
A|-3-33-3-3-2-22-2-2-0-00-0-0-6-66-6-6-|
F|-4-44-4-4-3-33-3-3-1-11-1-1-7-77-7-7-|
C|-5-55-5-5-4-44-4-4-2-22-2-2-7-77-7-7-|
G|-------------------------------------|
D|-------------------------------------|

D|-3-33-3-3/4-44-4-4\3-33-3-3/0-00-0-0-|
A|-4-44-4-4/5-55-5-5\4-44-4-4\1-11-1-1-|
F|-5-55-5-5/6-66-6-6\5-55-5-5\2-22-2-2-|
C|-5-55-5-5/6-66-6-6\5-55-5-5\2-22-2-2-|
G|-------------------------------------|
D|-------------------------------------|

D|-3-33-3-3-2-22-2-2-0-00-0-0-5-55-5-5-|
A|-3-33-3-3-2-22-2-2-0-00-0-0-6-66-6-6-|
F|-4-44-4-4-3-33-3-3-1-11-1-1-7-77-7-7-|
C|-5-55-5-5-4-44-4-4-2-22-2-2-7-77-7-7-|
G|-------------------------------------|
D|-------------------------------------|

D|-3-33-3-3/4-44-4-4\3-33-3-3/0-00-0-0-|
A|-4-44-4-4/5-55-5-5\4-44-4-4\1-11-1-1-|
F|-5-55-5-5/6-66-6-6\5-55-5-5\2-22-2-2-|
C|-5-55-5-5/6-66-6-6\5-55-5-5\2-22-2-2-|
G|-------------------------------------|
D|-------------------------------------|

D|-5-x-5-x-5-5-5-5\6-x-6-x-6-6-6-6-|
A|-6-x-6-x-6-6-6-6\7-x-7-x-7-7-7-7-|
F|-7-x-7-x-7-7-7-7\8-x-8-x-8-8-8-8-|
C|-7-x-7-x-7-7-7-7\8-x-8-x-8-8-8-8-|
G|---------------------------------|
D|---------------------------------|

Solo
Guitar 1
D|----------------------------------------------------------------|
A|----------------------------------------------------------------|
F|-7--5~~~~~~~bu(6)~~~~7--5--3--2--0~~~~~~0-0-0-0-0-0-0-0---------|
C|--------------------------------------------------------2-2-2-2-|
G|----------------------------------------------------------------|
D|----------------------------------------------------------------|

D|----------------------------------------------------------------|
A|--------------------------------/8~~~~~~8-8-8-8-8-8-8-8/5-5-5-5-|
F|-7--5~~~~~~~bu(6)~~~~7--5--3--2---------------------------------|
C|----------------------------------------------------------------|
G|----------------------------------------------------------------|
D|----------------------------------------------------------------|

Guitar 2
D|--------------------------------------|
A|-8-88-8-8-8-88-8-8-8-88-8-8-8-88-8-8\-|
F|-9-99-9-9-9-99-9-9-9-99-9-9-9-99-9-9\-|
C|-9-99-9-9-9-99-9-9-9-99-9-9-9-99-9-9\-|
G|-7-77-7-7\6-66-6-6/7-77-7-7\6-66-6-6\-|
D|--------------------------------------|

D|-------------------------------------|
A|-4-44-4-4/5-55-5-5\4-44-4-4\1-11-1-1-|
F|-5-55-5-5/6-66-6-6\5-55-5-5\2-22-2-2-|
C|-5-55-5-5/6-66-6-6\5-55-5-5\2-22-2-2-|
G|-3-33-3-3/4-44-4-4\3-33-3-3\0-00-0-0-|
D|-------------------------------------|

Guitar 2
D|-7-77-7-7\6-66-6-6\7-77-7-7\6-66-6-6\-|
A|-8-88-8-8\7-77-7-7\8-88-8-8\7-77-7-7\-|
F|-9-99-9-9\8-88-8-8\9-99-9-9\8-88-8-8\-|
C|-9-99-9-9\8-88-8-8\9-99-9-9\8-88-8-8\-|
G|--------------------------------------|
D|--------------------------------------|

D|-3-33-3-3/4-44-4-4\3-33-3-3\0-00-0-0-|
A|-4-44-4-4/5-55-5-5\4-44-4-4\1-11-1-1-|
F|-5-55-5-5/6-66-6-6\5-55-5-5\2-22-2-2-|
C|-5-55-5-5/6-66-6-6\5-55-5-5\2-22-2-2-|
G|-------------------------------------|
D|-------------------------------------|

Chorus
Guitar 1
D|-3-33-3-3-2-22-2-2----------5-55-5-5-|
A|-3-33-3-3-2-22-2-2-8-88-8-8-6-66-6-6-|
F|-4-44-4-4-3-33-3-3-9-99-9-9-7-77-7-7-|
C|-5-55-5-5-4-44-4-4-9-99-9-9-7-77-7-7-|
G|-5-55-5-5-4-44-4-4-7-77-7-7-5-55-5-5-|
D|-3-33-3-3-2-22-2-2-0-00-0-0----------|

D|-------------------------------------|
A|-4-44-4-4/5-55-5-5\4-44-4-4\1-11-1-1-|
F|-5-55-5-5/6-66-6-6\5-55-5-5\2-22-2-2-|
C|-5-55-5-5/6-66-6-6\5-55-5-5\2-22-2-2-|
G|-3-33-3-3/4-44-4-4\3-33-3-3\0-00-0-0-|
D|-------------------------------------|

D|-3-33-3-3-2-22-2-2----------5-55-5-5-|
A|-3-33-3-3-2-22-2-2-8-88-8-8-6-66-6-6-|
F|-4-44-4-4-3-33-3-3-9-99-9-9-7-77-7-7-|
C|-5-55-5-5-4-44-4-4-9-99-9-9-7-77-7-7-|
G|-5-55-5-5-4-44-4-4-7-77-7-7-5-55-5-5-|
D|-3-33-3-3-2-22-2-2-0-00-0-0----------|

D|-------------------------------------|
A|-4-44-4-4/5-55-5-5\4-44-4-4\1-11-1-1-|
F|-5-55-5-5/6-66-6-6\5-55-5-5\2-22-2-2-|
C|-5-55-5-5/6-66-6-6\5-55-5-5\2-22-2-2-|
G|-3-33-3-3/4-44-4-4\3-33-3-3\0-00-0-0-|
D|-------------------------------------|

Chorus 
Guitar 2
D|-3-33-3-3-2-22-2-2-0-00-0-0-5-55-5-5-|
A|-3-33-3-3-2-22-2-2-0-00-0-0-6-66-6-6-|
F|-4-44-4-4-3-33-3-3-1-11-1-1-7-77-7-7-|
C|-5-55-5-5-4-44-4-4-2-22-2-2-7-77-7-7-|
G|-------------------------------------|
D|-------------------------------------|

D|-3-33-3-3/4-44-4-4\3-33-3-3/0-00-0-0-|
A|-4-44-4-4/5-55-5-5\4-44-4-4\1-11-1-1-|
F|-5-55-5-5/6-66-6-6\5-55-5-5\2-22-2-2-|
C|-5-55-5-5/6-66-6-6\5-55-5-5\2-22-2-2-|
G|-------------------------------------|
D|-------------------------------------|

D|-3-33-3-3-2-22-2-2-0-00-0-0-5-55-5-5-|
A|-3-33-3-3-2-22-2-2-0-00-0-0-6-66-6-6-|
F|-4-44-4-4-3-33-3-3-1-11-1-1-7-77-7-7-|
C|-5-55-5-5-4-44-4-4-2-22-2-2-7-77-7-7-|
G|-------------------------------------|
D|-------------------------------------|

D|-3-33-3-3/4-44-4-4\3-33-3-3/0-00-0-0-|
A|-4-44-4-4/5-55-5-5\4-44-4-4\1-11-1-1-|
F|-5-55-5-5/6-66-6-6\5-55-5-5\2-22-2-2-|
C|-5-55-5-5/6-66-6-6\5-55-5-5\2-22-2-2-|
G|-------------------------------------|
D|-------------------------------------|

Outro
Guitar 1
D|-5-x-5-x-5-5-5-5\6-x-6-x-6-6-6-6-|
A|-6-x-6-x-6-6-6-6\7-x-7-x-7-7-7-7-|
F|-7-x-7-x-7-7-7-7\8-x-8-x-8-8-8-8-|
C|-7-x-7-x-7-7-7-7\8-x-8-x-8-8-8-8-|
G|-5-x-5-x-5-5-5-5\6-x-6-x-6-6-6-6-|
D|-5-x-5-x-5-5-5-5\6-x-6-x-6-6-6-6-|

Guitar 2
D|-5-x-5-x-5-5-5-5\6-x-6-x-6-6-6-6-|
A|-6-x-6-x-6-6-6-6\7-x-7-x-7-7-7-7-|
F|-7-x-7-x-7-7-7-7\8-x-8-x-8-8-8-8-|
C|-7-x-7-x-7-7-7-7\8-x-8-x-8-8-8-8-|
G|---------------------------------|
D|---------------------------------|

End on (With Feedback) 
Guitar 1
D|-0~~~~~~~|
A|-0~~~~~~~|
F|-0~~~~~~~|
C|-2~~~~~~~|
G|-2~~~~~~~|
D|-0~~~~~~~|

Guitar 2
D|-7~~~~~~~|
A|-8~~~~~~~|
F|-9~~~~~~~|
C|-9~~~~~~~|
G|---------|
D|---------|
Comments