Nine Black Alps - Everybody Is Chords & Tabs

 

Everybody Is Chords & Tabs

Nine Black Alps Chords & Tabs

Version: 1 Type: Tab 0 ratings
1 star 2 stars 3 stars 4 stars 5 stars
comments

Everybody Is Tab

Nine Black Alps - Everybody Is
Tabbed by Sam King
Tune down a tone-to do this, detune e until is sounds the same as the a string when
playing the 7th fret on e. then retune it as you normally would.
[ Tab from: http://www.guitartabs.cc/tabs/n/nine_black_alps/everybody_is_tab.html ]
intro/verse
d-----------|-----------|
a-3----2----|-1----1----|
f-x----x----|-x----x----|
C-5----4----|-2----2----|
G-6----5----|-3----0----|
D-----------|-----------|

chorus
d-3-----0-----|-5--------|
a-3-----0-----|-5--------|
f-4-----1-----|-6--------|
C-5-----2-----|-7--------|
G-5-----2-----|-7--------|
D-3-----0-----|-5--------|

it really is that simple! the middle section with lots of extreme noise is played by
scraping a drum stick along your strings.
Comments