Nine Black Alps - Cosmopolitan Chords & Tabs

 

Cosmopolitan Chords & Tabs

Nine Black Alps Chords & Tabs

Version: 1 Type: Bass Tab 0 ratings
1 star 2 stars 3 stars 4 stars 5 stars
comments

Cosmopolitan Bass Tab

   
Nine Black Alps-Cosmopolitan
Bass Tab
Tabbed By Sam King

Intro/verse
g-----------------|-----------------|
D-----------------|-----------------|
A-----------------|-----------------|
E-3-3-3-3-3-3-3-3-|-3-3-3-3-3-3-3-3-|

g-----------------|-----------------|
D-----------------|-----------------|
A-----------------|-----------------|
E-6-6-6-6-6-6-6-6-|-6-6-6-6-6-6-6-6-|
[ Tab from: http://www.guitartabs.cc/tabs/n/nine_black_alps/cosmopolitan_btab.html ]
same rhythm as above
g---------|--------------|---------|---------|
D---------|--------------|---------|---------|
A---------|--------------|---------|---------|
E-10------|-10-----5-7-8-|-10------|-10------|

pre-chorus
g----------------------|
D----------------------|
A----------------------| x4
E-101110-x-x-x-x-x-x-|

chorus
g----------|----------|---------|-----------|
D----------|----------|---------|-----------|
A----------|----------|---------|-----------|
E-6--------|-3--------|-6-------|-3----4----|
Comments