Nina - Steep Chords & Tabs

 

Steep Chords & Tabs

Nina Chords & Tabs

Version: 1 Type: Tab 0 ratings
1 star 2 stars 3 stars 4 stars 5 stars
comments

Steep Tab

I'm not exactly sure 'bout this...Kung may comments kayo,e-mail me at ja_nj_an@yahoo.com...enjoy!

[ Tab from: http://www.guitartabs.cc/tabs/n/nina/steep_tab.html ]
(INTRO)
|-12-9-------12-9--12-12-17-16-14---|
|--------9h10-----------------------|
|-----------------------------------|
|-----------------------------------|
|-----------------------------------|
|-----------------------------------|

|-------12-9--8h7-12-9-14-----10-9------------|
|-9h10--------------------10-------10---10s12-|
|-------------------------------------9-------|
|---------------------------------------------|
|---------------------------------------------|
|---------------------------------------------|
Comments