Nina - Someday Chords & Tabs

 

Nina Chords & Tabs

Version: 1 Type: Tab 0 ratings
1 star 2 stars 3 stars 4 stars 5 stars
comments

Someday Tab

   
Someday
Nina

tab by mark adrian domingo
CAPO 2ND FRET
 
Intro:
E|--------7--5-4---------------------------------------|
B|-7-0-5---------7--5--7--9--0-------------------------|
G|-----------------------------------------------------|
D|------------------------------6----------------------|
A|-----------------------------------------------------|
E|-----------------------------------------------------|

E|---------------7--5--4-------------------------------|
B|-----------7-5---------7--5--7--9--0-----------------|
G|-----4---4-------------------------------------------|
D|-4-6---6--------------------------------6------------|
A|-----------------------------------------------------|
E|-----------------------------------------------------|


a                       e
Someday youíre gonna realize
a                         g#m-c#m
One day youíll see this thru my eyes
a                          f#
By then, I wonít even be there
                 b(M7)
Iíll be happy somewhere
          e
Even if I cared

(Repeat chord pattern)
a                                e 
I know you donít really see my worth
a                         g#m-c#m
You think youíre the last guy on earth
a                     
Well Iíve got news for you
 f#
I know Iím not that strong
               b(M7)
But it wonít take long
           e
Wonít take long
[ Tab from: http://www.guitartabs.cc/tabs/n/nina/someday_tab.html ]
       a
'Coz Someday someoneís gonna love me
g#m-c#m
The way I wanted you to need me
f#m-b                                 e
Someday someoneís gonna take your place
a
One day Iíll forget about you
g#m-c#m
You'll see, I won't even miss you
f#m-b-e
Someday, someday

(repeat chord pattern)
a                        e
Right now I know you can tell
a                    g#m-c#m
Iím down and Iím not doing well
a                         f#
But one day these tears they will all run dry
               b(M7)            e
I wonít have to cry, sweet goodbye


      a
'Coz Someday someoneís gonna love me
g#m-c#m
The way I wanted you to need me
f#m-b                                 e
Someday someoneís gonna take your place
a
One day Iíll forget about you
g#m-c#m
You'll see, I won't even miss you
f#m-b-e
Someday, someday

a
Someday someoneís gonna love me
g#m-c#m
The way I wanted you to need me
f#m-b                                 e
Someday someoneís gonna take your place
a
One day Iíll forget about you
g#m-c#m
You'll see, I won't even miss you
f#m-b-e
Someday someday...
E|---------------7--5--4-------------------------------|
B|-----------7-5---------7--5--7--9--0-----------------|
G|-----4---4-------------------------------------------|
D|-4-6---6--------------------------------6------------|
A|-----------------------------------------------------|
E|-----------------------------------------------------|

oh yeah...

Comments