Nina - Love Moves In Mysterious Ways Chords & Tabs

 

Love Moves In Mysterious Ways Chords & Tabs

Nina Chords & Tabs

Version: 2 Type: Tab 0 ratings
1 star 2 stars 3 stars 4 stars 5 stars
comments

Love Moves In Mysterious Ways Tab

E------0-0---------2|---------------------------------|
B---2-3---3-2-0-0-3-|---3-5-7-5-7-8-7-3---------------|
G--------------2----|------------------4-4-6-2h4------|
D-------------------|--0------------------------------|
A--0----------------|---------------------------------|
E-------------------|---------------------------------|

[ Tab from: http://www.guitartabs.cc/tabs/n/nina/love_moves_in_mysterious_ways_tab_ver_2.html ]
E------0-0---------2|---------------------------------|
B---2-3---3-2-0-0-3-|---3-5-7-5-7-8-7-3---------------|
G--------------2----|------------------4-4-6-2h4------|
D-------------------|--0------------------------------|
A--0----------------|---------------------------------|
E-------------------|---------------------------------|

[ Tab from: http://www.guitartabs.cc/tabs/n/nina/love_moves_in_mysterious_ways_tab_ver_2.html ]E------0-0---------2|---------------------------------|
B---2-3---3-2-0-0-3-|---3-5-7-5-7-8-7-3---------------|
G--------------2----|------------------4-4-6-2h4------|
D-------------------|--0------------------------------|
A--0----------------|---------------------------------|
E-------------------|---------------------------------|
Comments