Nina - Love Moves In Mysterious Ways Chords & Tabs

 

Love Moves In Mysterious Ways Chords & Tabs

Nina Chords & Tabs

Version: 1 Type: Tab 0 ratings
1 star 2 stars 3 stars 4 stars 5 stars
comments

Love Moves In Mysterious Ways Tab

Love Moves In Mysterious Ways
tabbed by:jR_23

adlib:

e|------------------------------------------|
B|------------------------------------------|
G|--5---6---6/8---8---6---5-----------------|
D|----------------------------6---6---8-----|
A|------------------------------------------|
E|------------------------------------------|
[ Tab from: http://www.guitartabs.cc/tabs/n/nina/love_moves_in_mysterious_ways_tab.html ]
e|--------------------------------------------------------~-------------|
B|----------------------------------------------------------------------|
G|--6---8---8/10---8---10---10/11---10---6-----------5---5h6p5----------|
D|-------------------------------------------8---8---------------6h8p6--|
A|----------------------------------------------------------------------|
E|----------------------------------------------------------------------|

h-hammer
p-pull-off
/-slide-up



so that's all... this is my first tab so enjoy poh!...
whole name koh pla is Jan Ronald Agbuya!!! EhEhe!... 
ge pow thx! Enjoy!
Dedic8 koh 2 sa baby koh!.. iloveyou baby koh!
Comments