Nina - Love Moves In Mysteious Ways Chords & Tabs

 

Love Moves In Mysteious Ways Chords & Tabs

Nina Chords & Tabs

Version: 1 Type: Tab 0 ratings
1 star 2 stars 3 stars 4 stars 5 stars
comments

Love Moves In Mysteious Ways Tab

   
love moves in mysterious ways
by: nina
tab by: jayson a. hernandez (milkshake11_2k4@yahoo.com)

i dedic8 this song to my bhebs!!.. ksi s0brang mhl na mhl ko un ehh!!..
ingat u plagi ha!!.. luv u poh!!!!!!...... tamang tama poh i2 kasi cnubukan q n 2!!.. at 
poh ang naggawa kya tama 2!!.. pakinggan nyo lng maigi para makuha nyo ung tamang 
ng intro, adlib, and outro...

Intro:

e ------------------------------------------------------|
B ------------------------------------------------------|
G --5--6--6/8--8--6--5----------------------------------|
D ----------------------6--6--8-------------------------|
A-------------------------------------------------------|
E-------------------------------------------------------|

e ------------------------------------------------------|
B ------------------------------------------------------|
G --6--8--8/10--8--10--10/11--10--6--------5------------|
D -----------------------------------8--8---------------|
A ------------------------------------------------------|
E ------------------------------------------------------|

Adlib:
[ Tab from: http://www.guitartabs.cc/tabs/n/nina/love_moves_in_mysteious_ways_tab.html ]
e ------------------------------------------------------|
B ------------------------------------------------------|
G --5--6--6/8--8--6--5----------------------------------|
D ----------------------6--6--8-------------------------|
A-------------------------------------------------------|
E-------------------------------------------------------|

e -----------------------------------------------------------|
B -----------------------------------------------------------|
G --6--8--8/10--8--10--10/11--10--6--------5--5h6p5----------|
D -----------------------------------8--8------------6h8p6---|
A -----------------------------------------------------------|
E -----------------------------------------------------------|

Outro:

e ------------------------------------------------------|
B ------------------------------------------------------|
G --5--6--6/8--8--6--5----------------------------------|
D ----------------------6--6--8-------------------------|
A-------------------------------------------------------|
E-------------------------------------------------------|

Note: just listen 2 the original adlib of the song!!.. 2 get a good timing  of this 
and intro, outro..... tamang tama i2 kasi cnubukan q n 2!!.. promise magugus2han nyo 2!!...
                                h=hammer
                                p=pull-up
                                /=slide-up
Comments