Nina - Jealous Chords & Tabs

 

Jealous Chords & Tabs

Nina Chords & Tabs

Version: 1 Type: Tab 0 ratings
1 star 2 stars 3 stars 4 stars 5 stars
comments

Jealous Tab

   
Jealous Acoustic Tab by Nina, www.Ultimate-Guitar.Com

____________________________________________________________________________
****************************************************************************
Title: “Jealous” (Acoustic Version)
Artist: Nina
Transcriped by: Reynaldo R. Ramos
E mail : rey_rrr20@yahoo.com
____________________________________________________________________________
****************************************************************************

Mga Peeps ITO NA PO YUNG REQUEST NYO!!! dalawa ang nag gigitara dito kaya
hindi ko masasabing perfect pagkakatranscriped ko dito,pero sure ako sa mga notes
at broken chords ko dito! basta kung ano ang nangingibabaw sa pandinig ko yun ang
nasa tab kasi medyo nakakalito yung combination ng tunog ng 2 gitara! Masasabi
kong napakahirap din ng song na ito gawan ng tab kasi masyadong mahirap yung mga
broken chords at may part pang sobrang bilis kaya keep on practice.

Note: use your big finger for second string(B) and index finger for first
string(e) to produce loud and harmonic sounds in some part of the song. 

     THIS HOW IT GOES!doon lang sa mayroong parenthesis 
      
      e|---(0)---|   --->>>  use your index(pointing) finger
      B|---(0)---|   --->>>  use your big finger  
      G|---------|
      D|---------|
      A|---------|
      E|---------|
____________________________________________________________________________
****************************************************************************


Intro: A-C#m7-D-Asus/E (2x)

   A              C#m7           D                 Asus/E 

e|--------0-------------0------------------------------------------|
B|--------------0-------------0--------3----------0----------------|
G|------2-----2-------2-----2--------2-------2----2--4-----6-------|
D|----2-----2-------2-----2--------4---------4----2--4-----6-------|
A|--0-------------4--------------5--------5-------0--2-----4-------|
E|-------------------------------------------------------------0---|
 
   A             C#m7           D              Asus/E (hold)

e|--------0-------------0--------------------------|
B|--------------0-------------0--------3-----------|
G|------2-----2-------2-----2--------2-------2-----|
D|----2-----2-------2-----2--------4---------4-----|
A|--0-------------4--------------5--------5--------|
E|----------------------------------------------0--|


Stanza 1: A-C#m7-D-Asus/E- (2X)

e|--------(0)x----------(0)x-----------(0)x----------------------|
B|--------(0)x----------(0)x-----------(0)x---0------------------|
G|------2----x---2-----2---x---2-----2----x---2------------------|
D|----2------x--2----2-----x--2----4------x----------------------|
A|--0--------x-0---4-------x-4---5--------x-5--------0-5h4-------|
E|-----------x-------------x--------------x------0h2--------5-7--|

e|--------(0)x----------(0)x-----------(0)x----------------------|
B|--------(0)x----------(0)x-----------(0)x---0------------------|
G|------2----x---2-----2---x---2-----2----x---2------------------|
D|----2------x--2----2-----x--2----4------x----------------------|
A|--0--------x-0---4-------x-4---5--------x-5--------0-5h4-------|
E|-----------x-------------x--------------x------0h2--------5-7--|


Refrain:  C#m7-G/E-Asus/F#/Asus/E-C#m7-CM7-Bm7-Asus-Asus/E(hold)-

e|-------0---------------3----------------0-------------0-------|
B|---------0---------------3----------------3-------------3-----|
G|-----2-----2---------0-----0---------2------2-------2-----2---|
D|---2---------2-----2---------2-----2----------2---2---------2-|
A|-4------------------------------------------------------------|
E|-----------------3---------------2--------------0-------------|

e|--------0-----------------5----------------0----------------0-----------|
B|----------0-------------3---3------------0---0------------3---3-----(7)-|
G|------2-----2---2-----4-------4--------2-------2--------2-------2---(7)-|
D|----2---------2-----5-----------5----4-----------4----2-----------2-(7)-|
A|--4---------------3----------------2----------------0---------------(7)-|
E|------------------------------------------------------------------------|


Chorus 1: A-C#m7-D-Asus/E- (4x)

e|-------(0)x---0---------(0)x---0--------(0)x---------7-------------|
B|-------(0)x---0---------(0)x---0--------(0)x-------------10--------|
G|-----2----x-----------2----x----------2----x---------9---9---------|
D|---2------x---------2------x--------4------x----------------7------|
A|-0--------x-0-----4--------x-0----5--------x-----7--------------7--|
E|--------------------------------------------------------------9----|

e|-------(0)x---0---------(0)x---0--------(0)x---------7-------------|
B|-------(0)x---0---------(0)x---0--------(0)x-------------10--------|
G|-----2----x-----------2----x----------2----x---------9---9---------|
D|---2------x---------2------x--------4------x----------------7------|
A|-0--------x-0-----4--------x-0----5--------x-----7--------------7--|
E|--------------------------------------------------------------9----|

e|--------0--------------0---------------------------------|
B|----------0--------------0------------3------------------|
G|------2-----2--------2-----2--------2--------2-----------|
D|----2---------2----2---------2----4-------4--------------|
A|--0--------------4--------------5-------5----------------|
E|-------------------------------------------------0-------|

e|--------0--------------0---------------------------------|
B|----------0--------------0------------3------------------|
G|------2-----2--------2-----2--------2--------2-----------|
D|----2---------2----2---------2----4-------4--------------|
A|--0--------------4--------------5-------5----------------|
E|-------------------------------------------------0-------|

Stanza 2:

e|--------(0)x----------(0)x-----------(0)x---------------------|
B|--------(0)x----------(0)x-----------(0)x---0-----------------|
G|------2----x---2-----2---x---2-----2----x---2-------7-6-------|
D|----2------x--2----2-----x--2----4------x---------7-----9-7---|
A|--0--------x-0---4-------x-4---5--------x-5---7h9-------------|
E|-----------x-------------x--------------x---------------------|

e|--------(0)x----------(0)x-----------(0)x---------------------|
B|--------(0)x----------(0)x-----------(0)x---0-----------------|
G|------2----x---2-----2---x---2-----2----x---2--------7-6------|
D|----2------x--2----2-----x--2----4------x----------7-----9-7--|
A|--0--------x-0---4-------x-4---5--------x-5----7h9------------|
E|-----------x-------------x--------------x---------------------|

Repeat Refrain:

Chorus 2: A-C#m7-D-Asus/E- (4x)

e|-------(0)x---0---------(0)x---0--------(0)x---------7-------------|
B|-------(0)x---0---------(0)x---0--------(0)x-------------10--------|
G|-----2----x-----------2----x----------2----x---------9---9---------|
D|---2------x---------2------x--------4------x----------------7------|
A|-0--------x-0-----4--------x-0----5--------x-----7--------------7--|
E|--------------------------------------------------------------9----|

e|-------(0)x---0---------(0)x---0--------(0)x---------7-------------|
B|-------(0)x---0---------(0)x---0--------(0)x-------------10--------|
G|-----2----x-----------2----x----------2----x---------9---9---------|
D|---2------x---------2------x--------4------x----------------7------|
A|-0--------x-0-----4--------x-0----5--------x-----7--------------7--|
E|--------------------------------------------------------------9----|
[ Tab from: http://www.guitartabs.cc/tabs/n/nina/jealous_tab.html ]
e|--------0--------------0----------------0----------------0----------|
B|----------0--------------0------------3---3------------2---2--------|
G|------2-----2--------2-----2--------2-------2--------3-------3------|
D|----2---------2----2---------2----4-----------4----2----------2-----|
A|--0--------------4--------------5-----------------------------------|
E|-------------------------------------------------0------------------|

e|--------0--------------0----------------0----------------0----------|
B|----------0--------------0------------3---3------------2---2--------|
G|------2-----2--------2-----2--------2-------2--------3-------3------|
D|----2---------2----2---------2----4-----------4----2----------2-----|
A|--0--------------4--------------5-----------------------------------|
E|-------------------------------------------------0------------------|

Bridge: F#m-Esus-D-F#sus/C#-
        F#m-Esus-D-F#sus/C#-
        F#m-F#m/F-F#m/E-F#m/Eb-F#m/D-Bm7--Bb--Eb--

e|--------2--------------0-------------------0----------------------|
B|------2---2----------0---0-------------0-----0----------2------2--|
G|----2-------2------2-------2---------2---------2------4---4---4---|
D|--4-----------4--2-----------2-----4-----4----------4-------4-----|
A|---------------------------------5----------------4---------------|
E|------------------------------------------------------------------|

e|--------2--------------0------------------0-----------------------|
B|------2---2----------0---0-------------0----0-----------2------2--|
G|----2-------2------2-------2---------2---------2------4---4---4---|
D|--4-----------4--2-----------2-----4------------4---4-------4-----|
A|---------------------------------5----------------4---------------|
E|------------------------------------------------------------------|

e|--------------------------------------------------------------|
B|---------10--10-----------10---10--------10--10----10---------|
G|------11--------11-----11--------11----11------11--11------2--|
D|---11------11--------11------11------11----11------11----4----|
A|--9-----------------8---------------7--------------X---5------|
E|---------------------------------------------------11---------|

e|-----------------2--------2----------6----------8---------|
B|---------3-----3--------3------------6----------8---------|
G|-------2-----2--------2-----------8---------10--10--------|
D|-----4--------------------------8-------8---10--10--------|
A|---2--------2-----------------6-----------6/8---8---------|
E|----------------------------------------------------------|


Chorus 3: (one step higher) Bb-D#m7-Eb-Bbsus/F-(10x)

e|--------1------------------------------6--------------8---------|
B|--------1-1-------------5-5------------6-6------------11-11-----|
G|------3-----3---------3-3---3--------8-----8--------10-----10---|
D|----3---------3-----3---------3----8---------8-----8---------10-|
A|--1---------------5--------------6---------------8--------------|
E|----------------------------------------------------------------|

e|--------1------------------------------6--------------8---------|
B|--------1-1-------------5-5------------6-6------------11-11-----|
G|------3-----3---------3-3---3--------8-----8--------10-----10---|
D|----3---------3-----3---------3----8---------8-----8---------10-|
A|--1---------------5--------------6---------------8--------------|
E|----------------------------------------------------------------|

e|------(1)x------------x----------(6)x------------1--------------|
B|------(1)x---------(5)x----------(6)x--------------1------------|
G|-----3---x---3----3(3)x---3-----8---x---8------3-----3----------|
D|---3-----x--3----3----x--3----8-----x--8-----3---------3--------|
A|-1-------x-1---5------x-5---6-------x-6-------------------------|
E|---------x------------x-------------x------1--------------1h3---|

e|------(1)x------------x----------(6)x---------------1----------|
B|------(1)x---------(5)x----------(6)x-------------1------------|
G|-----3---x---3----3(3)x---3-----8---x---8-------3--------------|
D|---3-----x--3----3----x--3----8-----x--8-------3---------------|
A|-1-------x-1---5------x-5---6-------x-6------1-----------------|
E|---------x------------x-------------x------1-------------------|

e|-------1------------------------------6------------------------|
B|---------1------------5-----------------8------------11--------|
G|-----3-----3--------3---3----------8------8--------10--10------|
D|---3---------3----3-------3------8----------8----8--------8----|
A|-1--------------5-----------5--6---------------8------------8--|
E|---------------------------------------------------------------|

e|-------1------------------------------6------------------------|
B|---------1------------5-----------------8------------11--------|
G|-----3-----3--------3---3----------8------8--------10--10------|
D|---3---------3----3-------3------8----------8----8--------8----|
A|-1--------------5-----------5--6---------------8------------8--|
E|---------------------------------------------------------------|

e|------(1)x------------x----------(6)x-----------(1)x------------|
B|------(1)x---------(5)x----------(6)x-----------(1)x------------|
G|-----3---x---3----3(3)x---3-----8---x---8------3---x------3-----|
D|---3-----x--3----3----x--3----8-----x--8-----3-----x----3-------|
A|-1-------x-1---5------x-5---6-------x-6------------x------------|
E|---------x------------x-------------x------1-------x--1---------|

e|------(1)x------------x----------(6)x-------------1---------|
B|------(1)x---------(5)x----------(6)x---------------1-------|
G|-----3---x---3----3(3)x---3-----8---x---8-------3-----3-----|
D|---3-----x--3----3----x--3----8-----x--8------3---------3---|
A|-1-------x-1---5------x-5---6-------x-6---------------------|
E|---------x------------x-------------x-------1---------------|

e|------(1)x------------x----------(6)x---------7--------------|
B|------(1)x---------(5)x----------(6)x------------11----------|
G|-----3---x---3----3(3)x---3-----8---x---8-----9--9---9-------|
D|---3-----x--3----3----x--3----8-----x--8-----------------8---|
A|-1-------x-1---5------x-5---6-------x-6-----8----------8-----|
E|---------x------------x-------------x------------------------|

e|------(1)x------------x----------(6)x----------------8------|
B|------(1)x---------(5)x----------(6)x----------------11-----|
G|-----3---x---3----3(3)x---3-----8---x---8--------10--10-----|
D|---3-----x--3----3----x--3----8-----x--8-------8-----8------|
A|-1-------x-1---5------x-5---6-------x-6------8-------8------|
E|---------x------------x-------------x-----------------------|


Hope You Enjoy!paki rate po sana! e mail nyo ako pag mayron kayong tanong
about this tab!


Jealous of the girl who caught your eye
One of my darker days
When you looked at her where was I?
Shoulda been in her place
Here I am
All alone imagining what could have been
If I had been there

[Chorus:]
Jealous of the one who'se arms are around you
If she's keeping you satisfied
Jealous of the one who finally found you
Made your sun and your stars collide 
La la la la la la la
She's a very very lucky girl
La la la la la la la

Jealous of the one who won your heart
They say it's a perfect match
She's gonna get to be where you are
And I don't get better than that
She'll say you're fine
Whisper words I wish were mine
And they might have been
If I had been there

[Repeat Chorus]

You know I'd fight the good fight
If I thought I'd change your mind
But if she makes you happy
I would leave that dream behind
Man, she better treat you right
And give you everything
Cause at the moment she doesn't
I'll be waiting in the wings

[Repeat Chorus]

La la la la la la la
She's a very very lucky girl

____________________________________end_____________________________________
************************************   *************************************
Comments