Nina - I Love You Goodbye Chords & Tabs

 

I Love You Goodbye Chords & Tabs

Nina Chords & Tabs

Version: 1 Type: Tab 0 ratings
1 star 2 stars 3 stars 4 stars 5 stars
comments

I Love You Goodbye Tab

   
Song Title    : I Love You Goodbye
Band/Artist   : Nina
Tabbed by     : Angelino Cayabyab Estandian Jr. (a.k.a. ace)
Email         : acetangent@yahoo.com
contact no    : 09163981421
Date          : September 20, 2005

perfectly ear transcribed tab!!!!99.999% acurate! harharhar!!!
this tab goes out for ms. JOYCE ANN RODAS of college of
engineering and architecture of saint louis university, baguio city....
joyce, thanx for boosting me up during our freshmen and sophomore years...
ingat ka lagi friend...and stay humble....
jan kasi kita nakilala.......weeeeeeeee!

Tuning: EADGBe (standard)

notes:
   1. capitalized po ung mga word kung saan saasabay ung nota...
   2. hindi ko na po nilagay ung name ng chords kasi kinapa ko po xa 
      note-by-note.......
   3. listen to the cd to get the perfect timing......

legend:
   h         -hammer-on
   p         -pull-off
   s\        -slide up
   s/        -slide down
   +         -harmonic notes
   d         -downstroke
   u         -upstroke


intro:

e|---------------------------------|-------0----|
B|--3-----2h3--2-----2-0-----------|------------|
G|------4----------2---------------|------------|
D|----4----------2-----------------|----2-------|
A|--2----------0-------------------|--1---------|
E|---------------------0--0-pause--|------------|

e|---------------------------------|---12+------|
B|--3-----2h3--2---2s\5---3-2--0---|---12+------|
G|------4--------------------------|------------|
D|----4----------2-----------------|------------|
A|--2----------0-------------------|------------|
E|-----------------------------0---|------------|

verse1:
    
e|------------------0-rest--|-----------------------------|
B|--2----------0------------|----------2------------------|
G|------2-------------------|--2--------------------------|
D|----2---2------2----------|----4------------------------|
A|--0-----------------------|-----------------------------|
E|-------------4------------|--2------------2--0-rest-----|
...BE the one......ONE........GIVE....LOVE          


e|----------2---------0--------|----------------0-rest-----|
B|--0-----------3---------0----|--2--------0---------------|
G|----2-------2---2------------|------2--------------------|
D|----------0-----------2---2--|----2---2----2-------------|
A|-----------------------------|--0------------------------|
E|--------------------0--------|-----------4---------------|
...........KIND.....NEED.........SAY.....................

    
e|----------------------|----------0-rest------------|
B|------2---------------|------0------------2--------|
G|--2-----------2-rest--|--2-------------------------|
D|----4-----4-----------|----2---2-------------------|
A|--------4---4---------|-------------------4--------|
E|--2-------------------|--0-------------------------|
...STAY..................BABY......ME................

refrain:

e|--2------------------0-----------------|
B|----rest--3--t----------t-----3--------|
G|-------------a-----2----a---------4----|
D|--0----------p---2------p-------4------|
A|----------------4-------------2--------|
E|---------------------------------------|
......NEED..........WILLING...GIVE


e|-----------0-----|--2-----------0--------------------------------|
B|--2----3---2--t--|------3--tap------2----t---3--------------t----|
G|--------------a--|----2-----------2---2--a---------------2--a----|
D|--------------p--|--0--------------------p-------------4----p----|
A|-----------0-----|--------------4------------2-------------------|
E|-----------------|-----------------------------------------------|
...SOUL-TO-YOU.........PROMISE........BABY..SOMETHING


e|----2---0-----2-----|--1--4--5--------2-----------|
B|-----------------t--|-----------------2-----------|
G|------------2----a--|-----------------2--pause----|
D|-----------------p--|-----3--4-----2--4-----------|
A|--4---2---0---------|--2--------------4-----------|
E|--------------------|-----------------2-----------|
...........SAY..........ALL...THAT.....LIE..........


e|---------------------------------|---------------0-pause-------|
B|--------------2--3---------5-----|-----------------------------|
G|------------4------------6---6---|-----------------------------|
D|----------4------------6---------|--0-pause--------------------|
A|--------2------------4-----------|-----------------------------|
E|---------------------------------|-----------------------------|
......i KNOW.........HURT...........ONLY.........CRY............

[ Tab from: http://www.guitartabs.cc/tabs/n/nina/i_love_you_goodbye_tab.html ]
e|---5----4----2-------|--0--------0-rest-------------0--|--0----|
B|-------------3-------|--------0------------------------|--2----|
G|-------------4-------|--------------------------2------|-------|
D|---0---------4-------|----2-------------------2---2----|-------|
A|-------------2-------|--0-------------------0----------|--1----|
E|-------------X-------|---------------------------------|-------|
....NOT-ONE-NEEDED......LOVE............good-BYE................

e|---------------------------------|---12+------|
B|--3-----2-3--2---2s\5---3-2--0---|---12+------|
G|------4--------------------------|------------|
D|----4----------2-----------------|------------|
A|--2----------0-------------------|------------|
E|-----------------------------0---|------------|

repeat the pattern for:

verse2:

I hope someday you can 
Find some way to understand I'm only doing this for you 
I don't really wanna go 
But deep in my heart I know this is the kindest thing to do 
You'll find someone who'll be the one that I could never be 
Who'll give you something better 
Than the love you'll find with me 
Oh I could say that I'll be all you need 
But that would be a crime 
I know I'd only hurt you 
I know I'd only make you cry 
I'm not the one you're needing.....

                           d d d d d   d u d u 
                           | | | | |   | | | |           
e|----0-----0-rest---------0-0-0-0-0---0-0-0-0--------|
B|--------0----------------0-0-0-0-0---0-0-0-0---t----|
G|-------------------------2-2-2-2-2---2-2-2-2---a----|
D|------2------------------2-2-2-2-2---2-2-2-2---p----|
A|----0--------------------0-0-0-0-0---0-0-0-0--------|
E|-------------------------x-x-x-x-x---x-x-x-x--------|
...i LOVE you........good-BYE.........................

      E                d                E     d
e|----0----------------2----------------0-----2--------|
B|----0----------------3----------------0-----3--------|
G|----1----------------2----------------1-----2--------|
D|----2----------------0----------------2-----0--------|
A|----2----------------x----------------2-----X--------|
E|----0----------------x----------------0-----X--------|
.............leaving SOMEONE when you LOVE SOMEONE....

            C#7            F#m
e|-----------4-------------2-2-2-2-2------------------|
B|-----------6-------------2-2-2-2-2------------------|
G|-----------4-------------2-2-2-2-2--pause-----------|
D|-----------6-------------4-4-4-4-4------------------|
A|-----------4-------------4-4-4-4-4------------------|
E|-----------x-------------2-2-2-2-2------------------|
...is the HARDEST........THING to do................

    
e|------------2---------------0-----------------|
B|----------------3-rest------------------------|
G|--------------2---------------pause-----------|
D|------------0---------------------------------|
A|----------------------------------------------|
E|----------------------------0-----------------|
........some-ONE.............YOU........... 

e|--------------------------------------0-pause--------|
B|--------3---------5----------------------------------|
G|------4---------6---6--------------------------------|
D|----4---------6------------0-pause-------------------|
A|--2---------4----------------------------------------|
E|-----------------------------------------------------|
..NO I......LEAVE...........TEAR.....INSIDE........


e|--5----4-------2------------0-----0-rest-------------------0-----------|
B|---------------3----------------0---------------------0-2-------2-t----|
G|---------------4--pause-------------------------------------------a----|
D|--0------------4--------------2--------------------2----------2---p----|
A|---------------2------------0--------------------0---------------------|
E|---------------x-------------------------------------------------------|
...BE...ONE...NEEDING.......LOVE.............good-BYE...................

ending:

e|------------------------|------------0----|
B|--3---2-3-t--------5----|------3-----3----|
G|----------a------6------|----2---2---2----|
D|----2-----p----6--------|--0---------0----|
A|--2----------4-------4--|-----------------|
E|------------------------|-----------------|


e|----------5-----4------2---------|
B|-----------------------3---------|
G|-----------------------4---------|
D|----------0------------4---------|
A|-----------------------2---------|
E|-----------------------X---------|
baby, its NEVER GONNA WORK-OUT.......

e|----0-----0-rest---------|---0------------|
B|--------0----------------|---0------------|
G|-------------------------|---2--end-------|
D|------2------------------|---2------------|
A|----0--------------------|---0------------|
E|-------------------------|---x------------|
  i LOVE you.......goodbye............

kung may tanong po kayo,txt nyo po
ako sa 09163981421 or ipadala nyo nlng po sa yahoo mail at acetangent@yahoo.com

pede din po yan sa frndster.
Comments