Nina - I Love You Goodbye Chords & Tabs

 

I Love You Goodbye Chords & Tabs

Nina Chords & Tabs

Version: 1 Type: Chords 0 ratings
1 star 2 stars 3 stars 4 stars 5 stars
comments

I Love You Goodbye Chords

   
Sana po magustuhan ninyo ito pinaghirapan ko kac ito para ito sa mga may gusto nito. Just have the proper timing and makinig nalng muna sa music para madali itong
makuha.


Intro: Bm-A-E

E|---------------------------------------------0---------------|
B|-3-----0--2--3--2---------2---0--------p---------------------|
G|---4-------------------2---------------a---------------------|
D|---------------------2-------------2---u---2-----------------|
A|-2--------------0----------------------s--2------------------|
E|------------------------------0--------e---------------------|

E|--------------------------------------------12+--------------|
B|-3-----0--2--3--2------2s5---3---2----0-----12+--------------|
G|----4--------------------------------------------------------|
D|--------------------2----------------------------------------|
A|-2--------------2--------------------------------------------|
E|--------------------------------------0----------------------|

Verse:
             A2        A/G#
Wish I could be the one...

                   F#m         E
The one who could give you love...

             D                E
The kind of love you really need

             A2        A/G#
Wish I could say to you..

                  F#m
That I'll always stay with you

     E              E-A7   
But baby that's not me-

Refrain:

D            A/C#            Bm                   A       A7
You need someone willing to give their heart and soul to you

D            C#m                 Bm                 A
Promise you forever, baby that's something I can't do


Chorus:
    A7       D               C#7  -  C#9 
All I could say that I'll be all you need

     F#m        E    B7
But that would be a lie

  Bm             C#m
I know I'd only hurt you

             D    
I know I'd only make you cry

    F#m      E            D
I'm not the one you're needing

   E              A2
I love you, goodbye

[ Tab from: http://www.guitartabs.cc/tabs/n/nina/i_love_you_goodbye_crd.html ]
E|--------------------------------------------12+--------------|
B|-3-----0--2--3--2------2s5---3---2----0-----12+--------------|
G|----4--------------------------------------------------------|
D|--------------------2----------------------------------------|
A|-2--------------2--------------------------------------------|
E|--------------------------------------0----------------------|

            A2     A/G#                  F#m
I hope someday you can Find some way to understand 

           D              E
I'm only doing this for you

                 A2      A/G#
I don't really wanna go..

                F#m                        E             E  - A7
But deep in my heart I know this is the kindest thing to do....

Refrain 2:

D              A/C#              Bm               A-A7   
You'll find someone who could be that i'll never be

D                             C#m
Who'll give you something better

           Bm                   A
Than the love you'll find with me


Chorus:
    A7       D               C#7  -  C#9 
All I could say that I'll be all you need

     F#m        E    B7
But that would be a lie

  Bm             C#m
I know I'd only hurt you

             D    
I know I'd only make you cry

    F#m      E            D
I'm not the one you're needing

   E              A2
I love you, goodbye

Bridge: (STrumming na po dito)
E            D             E        D
Leaving someone when you love someone

          C#7    F#m
Is the hardest thing to do

                 D                   E
When you love someone as much as I love you


Coda: Plucking na po dito
   
   Bm             C#m
Oh I don't wanna leave you

           D
Baby it tears me up inside

                F#m    E             D
But I'll never be the one you're needing

    E             A2 - Bm - C#m -D
I love you, goodbye

          F#m   E     D  
Baby, its not gonna work out

Esus               A2
I   love you, goodbye


For your comments and questions?? just txt me 09263175031
Or my friendster mysassyjoy@lycos.com
Comments