Nina - Foolish Heart Chords & Tabs

 

Foolish Heart Chords & Tabs

Nina Chords & Tabs

Version: 5 Type: Tab 0 ratings
1 star 2 stars 3 stars 4 stars 5 stars
comments

Foolish Heart Tab

-------------------------------------------------------------------------
                          Foolish Heart - Nina (Paulo Santos)
-------------------------------------------------------------------------
Tabbed by: Janice Abordo
e-mail: Jamaica_Nicole@yahoo.com

Tuning: Regular (Both guitars)

Intro: Guitar 1
e-----2- tap---2--tap----2--tap------------2--tap---2-tap---2-tap---------
B---4--------2---------0---------2--0-2--4--------2-------0-------2-------
G---4--------3---------1---------3-------4--------3-------1-------3-3/4\3-
D------------2---------2---------2----------------2-------2-------2-------
A-------------------------------------------------------------------------
E---0------------------------------------0----------------0---------------

e-----2--tap---2--tap-----2-tap-----------2-tap---2-tap---------------tap-
B---4--------2---------0--------2--0-2--4-------2-------0--11+-12+-8+----
G---4--------3---------1--------3-------4-------3-------4-----------------
D------------2---------2--------2---------------2-------2-----------------
A-------------------------------------------------------2----------------
E---0------------------0----------------0---------------0-----------------

Verse 1 I need a love that grows...                               But with
e-----2-tap---2--tap---2--tap-----------2--tap---2--tap---2-tap-------2-
B---4-------2--------0--------2--0-2--4--------2--------0-------2--4----
G---4-------3--------1--------3-------4--------3--------1-------3-------
D-----------2--------2--------2----------------2--------2-------2-------
A-----------------------------------------------------------------------
E---0---------------------------------0-----------------0---------------

each passing...
e---4--tap-2--------------------------|-----------------------------------
B---2------2-----4--3/4-2-------------|---------2-2--2--------2-4/5\4--2-0-
G---2------2--------3/4-3-4-----------|-----4---4-4--4------4---4/6\4------
D--------------2----------4---------4-|---4---4-----------2---------------
A---2------2-2------------------4/6---|-----------------------------------
E-------------------3/4---4-4-4-------|-4-------3---3---2-----------------

I need a love that grows Im so tired...
E-----2--tap---2-tap---2-tap-----------2-tap---2-tap---2-tap-----
B---4--------2-------0-------2--0-2--4-------2-------0-------2---
G---4--------3-------1-------3-------4-------3-------1-------3---
D------------2-------2-------2---------------2-------2-------2---
A----------------------------------------------------------------
E---0----------------0---------------0---------------------------

But will my lonely heart...
e----2-4-4--tap-2----------------------------------------------0--2--2---2-
B--4---2-2------2--4\2-0--4-2-4----4---------------4---4----4--0-----2-----
G------2-2------2--4\2----4-3-4----4----4-4--------4---4----4--1-------4---
D---------------------------------------4-4--------------------------------
A------2-2------2------------------------------6\4---4---4--4--------------
E-------------------------4---4--4----4-4----4-----------------------------

Chorus 1 Foolish heart....
e----------2---------------tap-----0-----------0-------------tap------------
B----0-----0--0----------7-----4---2-----0-----0-0---------7-----4----------
G------3---3----3------6-------4---4-------3---3---3-----6-6-----4----------
D--------4--------4----4---------------------4-------4----------------------
A-------------------4----------2-2---------------------4---------2--4\2-----
E--0-------------------6---------------0-----------------6--------------4\2-

e----------2--------------------2-----------------------------------0---
B----0-----0-0---------7--------2h4p2---7-----------------4---------2---
G------3---3---3-----6-6------4-------6---4--4----------4-4-4-----4-----
D--------4-------4----------4---------4---4--4------------------2-------
A------------------4------2-----------------------2-3-4-----------------
E--o-----------------6----------------6---4-----4-------------2---------

Verse 2 I'd feel it, I'd feel it again...
e----2-tap---2--tap---2-tap -----------2-tap --2-tap---2-tap--------
B--4-------2--------0-------2-2-0-2--4-------2-------0-------2------
G--4-------3--------1-------3--------4-------3-------1-------3------
D----------2--------2-------2----------------2-------2-------2------
A-------------------------------------------------------------------
E--0----------------0----------------0---------------0--------------

e----2-4-4-tap--2------7-4--------------|-------------------------0-----tap-
B--4---2-2------2--4/7-7-4--4-2-4---4---|-----2--------2----------2---------
G------2-2------2-----------4-3-4---4---|-----4-4------4-4------4-----4-----
D---------------------------------------|---4--------4--------2-------2-----
A------2--------2-----------------------|-----------------------------------
E---------------------------4---4-4---4-|-4--------3--------2-------2-------

I need I need a love...
e----2-tap---2-tap---2-tap-----------2-tap---2-tap---2-tap-------2-
B--4-------2-------0-------2--0-2--4-------2-------0-------2-2-4---
G--4-------3-------1-------3-------4-------3-------1-------3-------
D----------2-------2-------2---------------2-------2-------2-------
A------------------------------------------------------------------
E--0---------------0---------------0---------------0---------------

e--4--4--tap-4-2----2h4p2------tap----------------------------2h4-2--------
B--2--2------2-2----2h4p2----------------4-------------4----4-2------------
G--------------------------4-4-------4---4--4-4--------4----4-4------1---1-
D--2-----------------------4-4-------4------4-4----------------------2---2-
A--2---------2-2--2-------------------------------2-3-4---4----------------
E--------------------------4-------4-4-4----4----4-------------------2-2---

Chorus 2 Foolish heart....
e----------2-------------tap-----------------2-------------tap--------------
B----0-----0-0---------7-----4---2-----0-----0-0---------7-----4------------
G------3---3---3-----6-------4---4-------3---3---3-----6-------4------------
D--------4-------4---4---------------------4-------4---4--------------------
A------------------4---------2-2---2-----------------4---------2-2--4\2-----
E--0-----------------6---------------0-----------------6----------------4\2-

e----------2-------------tap---tap---tap---tap--------------tap-4-----------
B----0-----0-0---------7-----4-------------------------4--4-----5-11+-12+-8+
G------3---3---3-----6-6-----4-----6-----4-------------4--4-----4-----------
D--------4-------4---4-------------4-----4----------------------------------
A------------------4---------2-------------------2-3-4---4------------------
E--0-----------------6-------------6-----4-----4----------------------------

Chorus 3 Foolish heart...
e-------------------tap---------------2---------2----tap-----------
B----0-----0------------4----4----0-----0-0-----0----------4----4----
G------3-----3----6-----4----4------3---3---3--------6-----4----4----
D--------4-----4--4-------------------4-------4------4---------------
A-----------------------2--2-------------------------------2--2----2-
E--0--------------6-------------0--------------------6---------------
[ Tab from: http://www.guitartabs.cc/tabs/n/nina/foolish_heart_tab_ver_5.html ]
E---------------------tap---tap---tap---tap-------------------0------
B----0-----0--------------4------------------------4--------2---2----
G------3-----3---3--6-----4-----6-----4----------4-4------4-----4----
D--------4-----4----4-----------4-----4-----------------2------------
A-------------------------2--------------------4---------------------
E--0----------------6-----------6-----4-----4---------2---------1----

Bridge (Instrumental)
E---------------------------------------------------------------------------
B-----------------------------------------7-----------------7----------7----
G---8-----6-------4-----6---------8-----6-6-4-----6-------8---6----6\4---6--
D---9-----8-------6-----8---------9-----8---6-----8-------9---8----8\6---8--
A---------------------------------------------------------------------------
E---0-0-0-0-0-0-0-0-0-0---0-0-0-0-0-0-0-0---0-0-0-0-0-0-0-0---0-0-0------0-0

    Chorus 4 Foolish Heart...
    Guitar 1
   |--------------------------------------------------2-------------tap--
   |----7--------7-------7----------7-----------0-----0-0---------7------
   |--8--------6-------4----------6---------------3---3---3-----6-6----4-
   |--9--------8-------6----------8-----------------4-------4---4------4-
   |----------------------------------------------------------4----------
   |--0--------0-------0----------0-----------0-----------------6------2-
   |Guitar 2
   |-------------------6-7--9-11-12-14-16-18-19--------------------------
   |-----------4-5-7-9-7-9-11-12-14-16-17-19-----------------------------
   |-------4-6-4-6-8-9---------------------------------------------------
   |-------6-8-----------------------------------------------------------
   |---------------------------------------------------------------------
   |---------------------------------------------------------------------

    Guitar 1
   |-------------------2-------------tap---------------------
   |------4------9-----0-0---------7-----4-------------------
   |------4--------3---3---3-----6-6-----4-------------------
   |-----------------4-------4---4----------------4----------
   |--2-----2------------------4---------2--4\2/4------------
   |-----------0-----------------6---------------------------
   |Guitar 2
   |--------------------------------------------9-11-12------
   |--2/4\2-0-----------------------------11-12--------------
   |---------------------------------------------------------
   |---------------------------------------------------------
   |---------------------------------------------------------
   |---------------------------------------------------------

     Guitar 1
   |--------2-----------tap---tap--tap---tap------------4---------4-------
   |---0----0-0-------------4-------------------------4-5-5-----5---5-----
   |-----3--3---3-----6-----4----6-----4------------4-4-4---4-4-------4---
   |-------4------4---4----------4-----4--------------------------------2-
   |----------------4-------2------------------2-3-4----------------------
   |--0---------------6----------6-----4-----4----------------------------

 
   Guitar 1                                                Foolish heart..
   |---------2-----------tap-------------------------2-----2-------tap-
   |---0-----0-0-------7-----4-----------------0-----0---0-------7-----4
   |-----3---3---3---6-6-----4-------------------3---3-3-----3-6-6-----4
   |-------4-------3-4-----------------4-----------4-----------4-------
   |-------------------------2-2---4/6---------------------------------2
   |-0---------------6-----------------------0-----------------6-------
   |Guitar 2
   |-----------------------------------2/4\2----------------------11-12p11-
   |-----------------------------0h2/4------------------------------------
   |----------------------------------------------------------------------
   |----------------------------------------------------------------------
   |----------------------------------------------------------------------
   |----------------------------------------------------------------------

    Guitar                                 Hahhh....
   |-----------------------------2-----2-------tap---tap---tap---tap-------
   |-----------------------0-----0---0-------7-----4-----------------------
   |-------------------------3---3-3-----3-6-6-----4-----6-----4-----------
   |-----4---------------------4-----------4-------------4-----4-----------
   |-4/6-------------------------------------------2-----------------------
   |---------------------o-----------------6-------------6-----4-----------
   |Guitar 2
   |--------------11-12--------------------------------14/16p14------------
   |-12-14-12-14------------------------------------------------14-12-14-12
   |-----------------------------------------------------------------------
   |-----------------------------------------------------------------------
   |-----------------------------------------------------------------------
   |-----------------------------------------------------------------------
  
    Guitar 1                           Don't be wrong anymore....
   |------------------0----------tap-|----2-tap---2-tap---2-tap------------
   |-----------4--2/4----------0-----|--4-------2-------0-------2--0-2-----
   |---------4-4-----------1-3-------|--4-------3-------1-------3----------
   |--------------2------4-----------|----------2-------2-------2----------
   |----2-3-4------------------------|-------------------------------------
   |--4-----------2------------------|--0---------------0------------------
   |Guitar 2
   |-------16\14-14\9-----------14+--|-------------------14\9-11\7-7/9-7\4-
   |-------------------------14+-----|-------------------------------------
   |---------------------------------|-------------------------------------
   |---------------------------------|-------------------------------------
   |---------------------------------|-------------------------------------
   |---------------------------------|-------------------------------------

    Guitar 1                                                     
   |----2-tap---2-tap---2-tap----------|----2-tap---2-tap---2-tap--------
   |--4-------2-------0-------2--0-2---|--4-------2-------0-------2--0-2-
   |--4-------3-------1-------3--------|--4-------3-------1-------3------
   |----------2-------2-------2--------|----------2-------2-------2------
   |-----------------------------------|---------------------------------
   |--0---------------0----------------|--0---------------0--------------
   |Guitar 2
   |------------------------7-6h7----------------------------------------
   |------------------------5-----------------7/9\7----------------------
   |------------------------------6/8\6-4--------------------------------
   |------------------------------8/9\8----------------------------------
   |---------------------------------------------------------------------
   |---------------------------------------------------------------------

    Guitar 1
   |-------2-tap---2-tap----------------||
   |----4--------2-------0--11+-12+-8+--||
   |----4--------3-------4--------------||
   |-------------2-------2--------------||
   |---------------------2--------------||
   |----o----------------0--------------||
   |Guitar 2                            ||
   |--------16--------------------------||
   |----16~----16\14-14\12--------------||
   |-16---------------------------------||
   |------------------------------------||
   |------------------------------------||
   |------------------------------------||

You can actually play solo guiar by trying to mix both parts after the bridge,
just add the simple guitar 2 ad-libs.There are some guitar 2 adlibs i can't hear
that well, so i left it out.

Questions? please e-mail.
Comments