Nina - Foolish Heart Chords & Tabs

 

Foolish Heart Chords & Tabs

Nina Chords & Tabs

Version: 2 Type: Tab 0 ratings
1 star 2 stars 3 stars 4 stars 5 stars
comments

Foolish Heart Tab


song: Foolih Heart
From "Heaven" Nina
tab by: marty gwapo flores	
contact me at martyiv_5@yahoo.com
If you want more opm tabs contact me ok

INTRO:
                                                    
E-------2----tap-------2---tap------2-----tap---------------------------------|
B---4------4-------2----2------0--------0--------2----------2-------------------|
G---3---------------3------------1-----------------3-----4--------------------|
D -------------------------------------------------------------------------|
A ---2---------------2------------2-----------------2------------------------------|
E -------------------------------------------------------------------------------|
               
E -------2---tap------2-----tap------2------tap-----------------------------|
B ---4-----4------2------2-------0-------0---------2-------------------|
G ---3-------------3--------------1------------------3----3h4p3------|
D --------------------------------------------------------------------|
A ---2-------------2---------------2------------------2-------------|
E ---------------------------------------------------------------|

E -------2-----tap------2------tap------2------tap--------------------------|
B ---4------4-------2------2--------0-------0--------2----------2-------|
G ---3---------------3---------------1-----------------3-----4----|
D ----------------------------------------------------------|
A ---2---------------2---------------2-----------------2------------|
E ---------------------------------------------------------------

E --------2-----tap-----2------tap----------0----------------------------|
B ---4------4-------2-------2--------------0---------(7) harmonics-----|
G ---3--------------3---------------------1---------------------|
D ----------------------------------------2---------(7)---------|
A ---2--------------2------------------2----------(7)-----------|
E -------------------------------------0--------------------------

VERSE 1:
E -------2----tap------2----tap------2------tap-----------------------------|
B ---4-----4-------2-----2-------0-------0--------2-----------2---------|
G ---3--------------3-------------1-----------------3-----4-------|
D ----------------------------------------------------------|
A ---2--------------2--------------2-----------------2--------------|
E ---------------------------------------------------------------|

E --------2----tap------2-------tap--------2-------tap----------------------|
B ---4-----4--------2-------2----------0-------0----------2---tap---------|
G ---3--------------3-------------------1-------------------3-----|
D -----------------------------------------------------------------|
A ---2--------------2--------------------2------------------2------|
E ---------------------------------------------------------------|

E ---4----2---------------------------------------------------------------------------------------|
B ---5----2---------2---------------------------------------------------------------------------------4/5--4--2----|
G----6----4----4-------4----4-------4------------------------4-------4---4--------------------4-----------------4---|
D ---6----4-------------4--------4---4--------------------4----------4-----4-------4------------------|
A ----------------------------------------------------------------------------------------------------|
E ------------------------4------------4---4-4-4/6-4-4----------4---3--------3--------2-------------|

E -------2----tap-----2------tap------2-----tap-----------------------------|
B ---4-----4-------2-----2---------0------0---------2--------2----------|
G ---3-------------3----------------1-----------------3----4-----|
D ----------------------------------------------------------------|
A ---2--------------2---------------2-----------------2--------------|
E ---------------------------------------------------------------|

E --------2----tap------2---tap---------2--------------------------------|
B ---4-------4------2------2--------0-------0-------2----tap--------------|
G ---3-------------- 3---------------1----------------3---------|
D ----------------------------------------------------------|
A ---2---------------2---------------2----------------2--------------|
E ---------------------------------------------------------------|

E ----4-----2----------------------------------------------------------------------------------------2---------------------|
B ----5-----2---------------------------------------------------------------4----------4----------2---------------------------|
G ----6-----4-----6/8----4----4-------4---------4----4------------------4----------4--------4----------------------------------------|
D ----6-----4-----7/9----4------4-----4--tap---4------4----------------4----------4----------------------------------------------------|
A --------------------------------------------------------------------2---4-------4-----------------------------------------|
E --------------------------4--------4---4---------3----------3---4-------------------------2---------------------------------|

CHORUS 1:
E ------------------0--------------2---------------------------0-------------2-------------------------------------------------------------|
B------0-----------0---------2------2--tap----4------0-----0---------2------2--tap-4--------------------------------------------------|
G ---------1------------------3-----------------4--------1--------------3---------------4--------------------------------------------------|
D -------------2---------2---4-----------------4----------2---------2--4---------------4------------------------------------------------------|
A ----------------------2--------------------------------------------2--------------------------4--2--0---------------------------------------|
E ---0------------------------------------------------0------------------------------------------------------4--0--------------------------|

E -----------0-----------------2----tap--------------------------------------------------------------------2--------------------------|
B ----0-----0------------2-------2--------4/5----4---2---------------------4-----4------------------2------2--------------------------------|
G ------1-----------------3----------------4/5----4---2---------------------4-----4--tap---------4------------------------------------------|
D ---------2---------2---4-----------------4/5---4----2--------------------4-----4-------------------------------------------------------|
A ----------------2-----------------------------------------------0----2---2/4-----4----------------------------------------------------|
E ---------------------------------------------------------------4--------------------------------2---------------------------------|
 
VERSE 2:
E --------2--tap--------2------tap-------2-----tap------------------------------------------|
B ----4-----4-------2-------2---------0------0----------2---------2---------------------|
G ----3-------------3------------------1------------------3-----4--------------------|
D -----------------------------------------------------------------------------|
A ----2--------------2------------------2------------------2-----------------------|
E -----------------------------------------------------------------------------|

E ---------2-----tap-------2------tap------2-------tap-----------------------------------|
B ----4-------4--------2-------2--------0------0----------2----tap----------------------|
G ----3-----------------3----------------1------------------3-----------------------|
D -----------------------------------------------------------------------------|
A ----2-----------------2-----------------2-----------------2---------------------|
E -----------------------------------------------------------------------------

E ----4----2-----------2-----------------------------------------------------------------------2--------------------------|
B ----5----2---2h3---2----5-----7----5----2---------------------------------------------2----2---------------2--------|
G ----6----4----------4----6------8----6----4-tap---------4--------------4-----------2----------tap-----4-----------------|
D ----6----4----------4----6------8----6----4-----------4--------------4--------------------------------------------------|
A -------------------------------------------------------------------------------------------------------------------------|
E --------------------------------------------------------4----------4---3---------3---2--------------------------------|

E --------2---tap------2-----tap-------2-----tap-------------------------------------------|
B ----4----2-------2------2---------0-----0---------2---------2------------------------|
G ----3------------3-----------------1----------------3------4----------------------|
D -----------------------------------------------------------------------------|
A ----2------------2------------------2----------------2---------------------------|
E -----------------------------------------------------------------------------|

E --------2------tap--------2-----tap--------tap----------------2--------------------------|
B ----4------4----------2------2--------0----------2---------2------------------------|
G ----3-----------------3----------------1----------3------4------------------------|
D -----------------------------------------------------------------------------|
A ----2-----------------2----------------2-----------2-----------------------------|
E -----------------------------------------------------------------------------|
[ Tab from: http://www.guitartabs.cc/tabs/n/nina/foolish_heart_tab_ver_2.html ]
E---4---2----2---------------------------------------------------------------------------------------------------------2h4-------------2------
B---5---3----2----------2h3/5-----------------------------------------------------------------------4---------4----------------4-----2-|
G---6---4----4-----4--------------4-----4-------4---------4-----4----4---tap--------------------4---------4----------------4--------|
D---6---4----4---------------------4-------4-----4--tap--4-----4----4----------------------------4---------4----------------4--------
A-----------------------------------------------------------------------------------------------2---4-------4-----------------------------------
E------------------------------------4--------------4--------4-----3----------------3---5---------------------------2---------------------








E -----------------------------------2---tap-----------------------------------------2---------------------------------------------------------|
B-----0-------0---------------2----2---------4----------0-------0------------2----2-----4----------------------------------------------------------
G--------1------1-------------3--------------4--tap-------1------1----------3-----------4--------------------------------------------------|
D ----------2------------2----4--------------4----------------2---------2----4-----------4------------------------------------------------|
A---------------------2-------------------------------------------------2-----------------------4---2---0--------------------------------------
E --0----------------------------------------------------------------------------------------------------------4---0---------------------------|

E-----------------------------------2----tap-----------------------------------------------------------2-----------------------------------------
B------0------0-------------2-----2-----------4---2----0-------------------4--------4------------2-----------(7)--harmonics------------------------------------ G--------1------1-----------3-----------------4----2---1-------------------4--------4----------2--------------------------------------------------------------------------|
D ----------2------------2---4----------------4----2---2-------------------4--------4--------2-------------(7)-----------------------------------------------------------------|
A ---------------------2----------------------------------------------2---4-------4----------2-------------(7)---------------------------------------------------------------|
E --------------------------------------------------------------3---4-----------------------2----------------------------------------------------------------------------|

E -----------------------------------------------------------------------------------------------------------------------------------------------------------------------|
B ------0-------0-------------2-----4----2----0------0-----------2----4---2------0------0-----------2-----4-----2----0-----------------------------------|
G --------1-------1-----1----3-----4----2-------1-----1-----1---3---4----2--------1-----1----1----3-----4-----2----1------------------------------|
D ----------2-------2---------4-----4----2---------2-----2-------4---4----2-----------2-----2-------4-----4-----2----2------------------------------|
A -------------------------------------------------------------------------------------------------------------------------------------------------------------------|
E ---0---------------------------------------0-----------------------------------0----------------------------------------------------------------------------------------|

E -----------------------------2---------------------2-------------------------------------------------------------------------------------------------------------------------|
B -------------------------2------2---------------2-------------------------------------------------------------------------------------------------------------------------------|
G --------------------4--------------4---------4----------------------------------------------------------------------------------------------------------------------------------|
D --------------------------------------------2--------------------------------------------------------------------------------------------------------------------------------|
A -------4-------2-------------------------2---------------------------------------------------------------------------------------------------------------------------------------|
E ----4--------2-------------------------2----------------------------------------------------------------------------------------------------------------------------------------|

BRIDGE:
E -------------------------------------------------------------------------------------------------------------------2-tap---------------2---tap-------------------|
B -------------------------------------------------------------------------------------------------------------------2--------------------2-----------------|
G ----4---4---4---3----3---1---1---3---3----3---3----4----4----4----3----3----1----1---3---3---3----4----------3---3----1----------------------------|
D ----2---2---2---1----1---1---1---1---1----1---1----2----2----2----1----1----1----1---1---1---1----2----------1---1----1-----------------------------|
A --------------------------------------------------------------------------------------------------------------------------------------------------------|
E-----0---0---0---0----0---0---0---0---0----0---0----0----0----0----0----0----0----0---0---0---0----0----------0---0----0---------------------------|

E -------------------------------------------------------------------------------------9-----11---12----14----15----17--------------------------------------|
B -------------------------2----------------------------7----8----9----11---12----10---11----12----14----15----17---------------------------------------|
G ----3---3----3----4---2-----4----6----8----9-----8----8----9----11---12---------------------------------------------------------------------------------|
D -------------------------------4----6----8----9---------------------------------------------------------------------------------------------------------------|
A ----1---1----1----2--------------------------------------------------------------------------------------------------------------------------------------------|
E ----0---0----0----0-----------------------------------------------------------------------------------------------------------------------------------------|

CHORUS 2:
E ----------------------------2--tap----------------------------------------2--tap----------------------------------------------------------------------|
B -------0-----0-------2----2---------4----2-------0------0--------2----2----------4----------------------------------------------------------------|
G ---------1----1------3--------------4----2----------1------1------3---------------4---------------------------------------------------------------|
D ------------2---2----4--------------4----2-------------2-----2----4---------------4---------------------------------------------------------------|
A ------------------------------------------------------------------------------------------4--2---0------------------------------------------------------|
E ----0-----------------------------------------0------------------------------------------------------4---0---------------------------------------------|

E ------------------------2--tap---------------------------------------------------------------------------2-------2----------------------------------------|
B ----0-----0-------2---2-------4----2----0---------------------------4---------2h4p-2-2-------------2-------2-------------------------------------|
G ------1-----1-----3-----------4----2----1--tap---------------------4--------4-------------4----4-------4-------4------------------------------------|
D ---------2----2---4-----------4----2----2-----------------------------------2-----------------2-------------2------2---------------------------------|
A --------------------------------------------------------0---2---2/4---4----2---------------------------------------------------------------------------|
E ------------------------------------------------------4---------------------------------------------------------------------------------------------------|


E --------------------------2-tap------------------------------------2--tap------------------------------2--tap----------------------------|
B -----0-----0-------2----2--------4----2-----0-----0--------2---2--------4-----0-----0---------2---2---------2----0------------------|
G -------1-----1-----3-------------4----2-------1------1-----3-------------4-------1------1------3--------------2----1------------------|
D---------2------2---4-------------4----2---------2-------2--4-------------4---------2-------2---4--------------2----2--------------|
A----------------------------------------------------------------------------------------------------------------------------------------------
E ---0---------------------------------------0------------------------------------0-----------------------------------------------------------|




E -------------------------------------------------------------2----pause-----------------------------------------------------------------------------------------------|
B -----------------------4-----0h----2------0------------2--------------------------------------------------------------------------------------------------------------|
G -----------------------4---------------3--------------4-------------------------------------------------------------------------------------------------------------|
D ------------------------------4---------------------2---------------------------------------------------------------------------------------------------------------|
A -----0---2---2/4-----4-------------------------2------------------------------------------------------------------------------------------------------------------------|
E ---4---------------------------------------------------------------------------------------------------------------------------------------------------------------|

REPEAT INTRO: (ENDING)




Comments