Nina - Constantly Chords & Tabs

 

Constantly Chords & Tabs

Nina Chords & Tabs

Version: 1 Type: Chords 0 ratings
1 star 2 stars 3 stars 4 stars 5 stars
comments

Constantly Chords

   
Title: Constantly
Artist: Nina (originally recorded by Vanessa Williams)



Standard Tuning

Chords:(Tab format)
    Eb9      EbM9      G       C      C6/D     G7     CM7   BM7      F
E  --x--    --x--    --3--   --3--   --5--    --3--  --3--  --1--  --1--
B  --6--    --6--    --3--   --3--   --5--    --3--  --5--  --3--  --1--
G  --8--    --7--    --4--   --5--   --5--    --4--  --4--  --2--  --2--
D  --x--    --x--    --5--   --5--   --5--    --3--  --5--  --3--  --3--
A  --6--    --6--    --5---  --3--   --5--    --5--  --3--  --1--  --3--
E  -----    -----    --3--   -----   -----    --3--  -----  -----  --1--

    G/B      G/Bb     G/A     G/C    G#6/Bb 
E  --3--    --3--    --3--   --3--   --1--
B  --3--    --3--    --3--   --3--   --1--
G  --0--    --0--    --0--   --0--   --1--
D  --0--    --0--    --0--   --0--   --1--
A  --2--    --1--    --0--   --3--   --1--
E  -----    -----    -----   -----   -----



Intro : Eb9 - EbM9 - G
        Eb9 - C9 - G
        Eb9 - EbM9 - G
        Eb9 - C9 - C6/D


Verse 1: 
[ Tab from: http://www.guitartabs.cc/tabs/n/nina/constantly_crd.html ]
G             G7
I knew it was there
                  CM7
Though I tried to hide it
                 BbM7    F       G
The feeling just kept on shining through
G                       G7
Haven't known you that long
              CM7
So I try to deny it
                    BbM7     F        G
But the feeling was much too much too strong


Refrain 1:

G/B           G/Bb
Could this be love
             G/A
Deep down inside
            G/B
Tearing me apart
  G/C              C6/D
I feel it in my heart


Chorus:
       G/C                G/B
Constantly, you're on my mind
          G#6/Bb            C6/D  
Thinking about you all the time
         G/C                   G/B
I can't sleep no matter what I do
         G#6/Bb                C6/D
I just keep on thinking 'bout you



Verse 2: (Same chords with Verse 1)
Why do I feel this way
When I know you have someone
That you're seeing each and every day
Should I play this game
Of just being your friend
When I know that's not where I want it to end

Refrain 2: (Same chords with Ref. 1)
How could this be wrong
When the feeling's so strong
Tearing me apart
I feel it in my heart

(Chorus)


Bridge:

   Eb9          EbM9        G
No I don't want to start no trouble
   Eb9          C9          G
Between you and I and your lover
    Eb9         EbM9         G
But I must tell you what I'm going through
      G/A          G/B      G/C             C6/D
Everytime you walk by I see love in your eyes

(Chorus)

Outro: Do Intro chords.


***Comments and Suggestions (including violent reactions)...keep them to yourselves!
   jk! send me a message through YM - rainslowhand

   This is for Osai(the best singer i've ever played for) and the rest of Pastel Painted Poetry. ^_^
Comments