Nimp-froid - Take Your Time Chords & Tabs

 

Take Your Time Chords & Tabs

Nimp-froid Chords & Tabs

Version: 1 Type: Tab 0 ratings
1 star 2 stars 3 stars 4 stars 5 stars
comments

Take Your Time Tab

------------------------------------------------------------              
		* Take your time - Nimp-froid *
------------------------------------------------------------

By:joe                 Intro:

e|----------------------------------------------------|
B|----------------------------------------------------|*2
G|-55--------------55---------------------------------|
D|-55--55--777--5--55--55--753--55--------------------|
A|-33--55--777--5--33--55--753--55--3-0~~~~~~~~~~~~~~~|
E|-----33--555--3------33--531--35--------------------|
   ^^              ^^
                      Verse:

e|----------------------------------------------------|
B|----------------------------------------------------|
G|-55---------------55--------------------------------|
D|-55--55--77--53---55--55--75--53--------------------|
A|-33--55--77--53---33--55--75--53--5-3-0~~~~~~~~~~~~~|
E|-----33--55--31-------33--53--31--------------------|
   ^^               ^^
                      Chorus:
[ Tab from: http://www.guitartabs.cc/tabs/n/nimp_froid/take_your_time_tab.html ]
e|----------------------------------------------------|
B|----------------------------------------------------|
G|-55--------------55---------------------------------|
D|-55--55--77--55--55--55--57--7753-------------------|
A|-33--55--77--55--33--55--57--7753--0~~~~~~~~~~~~~~~~|
E|-----33--55--33------33--35--5531-------------------|
   ^^              ^^
                      Outro:

e|----------------------------------------------------|
B|----------------------------------------------------|
G|--77------------------------------------------------|
D|--77--77-------5------------------------------------|
A|--55--77--0----5---3--0~~~~~~~~~~~~~~~~~~~~~~~~~~~~~|
E|------55-------3------------------------------------|



~~~=vibrato
^^^=palm mute


The way how it goes:

Intro,
Verse,
Chorus,
Verse,
Chorus,
Outro...........



                       * THe   enD *

(lyrics coming soon)and any proplems with the tab or for more tabes on nimp-froid 
please e-mail me at  Bikeman@zoom.co.uk     *thanx*
Comments