Nile - Stones Of Sarrow Chords & Tabs

 

Stones Of Sarrow Chords & Tabs

Nile Chords & Tabs

Version: 1 Type: Tab 0 ratings
1 star 2 stars 3 stars 4 stars 5 stars
comments

Stones Of Sarrow Tab

   
Nile - Stones Of Sarrow
Submitted By: Sqweeky
EMail: Blindside831@aol.com
From the Amongst the Catacombs of Nephren-Ka

Tune to A 3 1/2 steps down


A
|---------------------------------------|-----------------------------|
|---------------------------------------|-----------------------------|
|---------------------------------------|-----------------------------|
|---------------------------------------|-----------------------------|
|-7-----8-----7-8-11-10-7-8-7---6---1---|-0-----1-----0-1-4-3-3-4-7-6-|
|---------------------------------------|-----------------------------|

B
|-----------------------------------------------------|
|-----------------------------------------------------|							
|-----------------------------------------------------|
|-5-/-6-----5---6---9---8---6-/-7-----6---7---10--9---|
|-5-/-6-----5---6-X-9---8---4-/-5-----4---5-X-8---7---|
|-3-/-4-----3---4-X-7---6-------------------X---------|

C (Guitar 1)    (1 & 2)			    (3)
|-------------------------------------|------|
|-11--------------11------------------|-11---|
|-10--------------10------------------|-10---|
|-8----2----------8----2--------------|-8----|
|------2---------------2----2h3--2h3--|------|
|------0---------------0----0h1--0h1--|------|
C (Guitar 2)
|-------------------------------------|------|
|-------------------------------------|------|
|-10--------------10------------------|-10---|
|-8----2----------8----2--------------|-8----|
|-8----2----------8----2----2h3--2h3--|-8----|
|------0---------------0----0h1--0h1--|------|

Repeat B
Repeat C
|----------------------------------|
|----------------------------------|
|----------------------------------|
|-7----------6----------5----------|
|-7----------6----------5----------|
|-5----------4----------3----------|

D1	 (1)			  (2 - 6)
|-----------------|---------------------|
|-----------------|---------------------|
|-----------------|---------------------|
|-----------------|---------------------|
|-----------------|---------------------|
|-1~------3~------|-3h4-4-4-4-4-4-4-4-4-|
                  PM* * * * * * * * * *

D2
|-------------------------------------------------|
|-------------------------------------------------|
|-------------------------------------------------|
|-------------------------------------------------|
|-------------------------------------------------|
|-3-3-3-3-3-3-4-4-4-4-4-4-3-3-3-3-3-3-3-3-3-3-3-3-|
PM* * * * * * * * * * * * * * * * * * * * * * * *


D3      (1)			  (2 - 5)
|-----------------|---------------------|
|-----------------|---------------------|
|-----------------|---------------------|
|-----------------|---------------------|
|-----------------|---------------------|
|-1-1-1-1-3-3-3-3-|-3h4-4-4-4-4-4-4-4-4-|
PM* * * * * * * *   * * * * * * * * * * 

D4
|---------------------------------------------------------|
|---------------------------------------------------------|
|---------------------------------------------------------|
|---------------------------------------------------------|
|---------------------------------------------------------|
|-7-7-7-7-7-7-7-7-6-6-6-6-6-6-7-7-7-7-7-7-6-6-6-6-6-6-6-6-|
PM* * * * * * * * * * * * * * * * * * * * * * * * * * * *

[ Tab from: http://www.guitartabs.cc/tabs/n/nile/stones_of_sarrow_tab.html ]
       (1)	    (2 - 6)    Play w/D1 (All Drilled)
|-----------------|---------------------|
|-----------------|---------------------|
|-----------------|---------------------|
|-----------------|---------------------|
|-3-3-3-3-5-5-5-5-|-5h6-6-6-6-6-6-6-6-6-|
|-----------------|---------------------|
PM* * * * * * * *   * * * * * * * * * * 

Play w/D2
|-------------------------------------------------|
|-------------------------------------------------|
|-------------------------------------------------|
|-------------------------------------------------|
|-5-5-5-5-5-5-6-6-6-6-6-6-5-5-5-5-5-5-5-5-5-5-5-5-|
|-------------------------------------------------|
PM* * * * * * * * * * * * * * * * * * * * * * * *

	(1)	     (2 - 5)	Play w/D3
|-----------------|---------------------|
|-----------------|---------------------|
|-----------------|---------------------|
|-----------------|---------------------|
|-3-3-3-3-5-5-5-5-|-5h6-6-6-6-6-6-6-6-6-|
|-----------------|---------------------|
PM* * * * * * * *   * * * * * * * * * * 

							        
Play w/D4
|---------------------------------------------------------|
|---------------------------------------------------------|
|---------------------------------------------------------|
|---------------------------------------------------------|
|-9-9-9-9-9-9-9-9-8-8-8-8-8-8-9-9-9-9-9-9-8-8-8-8-8-8-8-8-|
|---------------------------------------------------------|
PM* * * * * * * * * * * * * * * * * * * * * * * * * * * *


E  Guitar 1			(2 & 3)				(4 & 5)
|-----------------|---------------------|---------------------------------|
|-----------------|---------------------|---------------------------------|
|-----------------|---------------------|---------------------------------|
|-----------------|---------------------|---------------------------------|
|-----------------|---------------------|-1-1-1-1-2-2-2-2-5-5-5-5-4-4-4-4-|
|-1-1-1-1-3-3-3-3-|-3h4-4-4-4-4-4-4-4-4-|---------------------------------|
PM* * * * * * * *   * * * * * * * * * *   * * * * * * * * * * * * * * * *

E  Guitar 2			(2 & 3)				(4 & 5)
|-----------------|---------------------|---------------------------------|
|-----------------|---------------------|---------------------------------|
|-----------------|---------------------|---------------------------------|
|-----------------|-5h6-6-6-6-6-6-6-6-6-|-3-3-3-3-4-4-4-4-7-7-7-7-6-6-6-6-|
|-----------------|---------------------|---------------------------------|
|-1-1-1-1-3-3-3-3-|---------------------|---------------------------------|
PM* * * * * * * *   * * * * * * * * * *   * * * * * * * * * * * * * * * *


		(1 & 2)			    (3)
|-------------------------|--------------------------|
|-------------------------|--------------------------|
|-------------------------|--------------------------|
|-10-10---9--9----7--7----|-5----7----9--------2-----|
|-8--8----7--7----5--5----|-3----5----7--------2-----|
|-------------------------|----------------\\\-0-----|

		(1 & 2)				     (3)
|--------------------------|----------------------------------------|
|--------------------------|----------------------------------------|
|--------------------------|----------------------------------------|
|-12--12---10-10---7--7----|-10-10---9--9----7--7----5---------8----|
|-10--10---8--8----9--9----|-8--8----7--7----5--5----3---------6----|
|--------------------------|----------------------------------------|
Comments