Nik Kershaw - The Riddle Chords & Tabs

 

The Riddle Chords & Tabs

Nik Kershaw Chords & Tabs

Version: 1 Type: Tab 0 ratings
1 star 2 stars 3 stars 4 stars 5 stars
comments

The Riddle Tab

The Riddle by Nik Kershaw


tabbed by:Nemanja


this is intro solo...i think it's correct.but if you find any mistakes mail me... :)

-----------------------------------------------------------------|
---------10------10--12--10--------------------------------------|
-11--13----------------------13--11--9--9------11--13--13--------|
-----------------------------------------------------------------|
-----------------------------------------------------------------|
-----------------------------------------------------------------|

[ Tab from: http://www.guitartabs.cc/tabs/n/nik_kershaw/the_riddle_tab.html ]
-----------------------------------------------------------------|
---------10------10--12--10--------------------------------------|
-11--13----------------------13--11--9--11-----11--9--9----------|
-----------------------------------------------------------------|
-----------------------------------------------------------------|
-----------------------------------------------------------------|

play this part twice and then the part below

------------------------------------------------|
--14--17--15--14--12--10------------------------|
----------------------------11--9h11--11--------|
------------------------------------------------|
------------------------------------------------|
------------------------------------------------|

h-hammer on
Comments