Nightwish - Over The Hills And Far Away Chords & Tabs

 

Over The Hills And Far Away Chords & Tabs

Nightwish Chords & Tabs

Version: 2 Type: Tab 0 ratings
1 star 2 stars 3 stars 4 stars 5 stars
comments

Over The Hills And Far Away Tab

INTRO

RIFF x 2
e:-0-2-3-0-0-5-0-0-7-0-0-8-7-5-7-0-0-0---0-2-5-3-2-------------------------|
B:-------------------------------------3-----------------------------------|
G:-------------------------------------------------------------------------|
D:-------------------------------------------------------------------------|
A:-------------------------------------------------------------------------|
E:-------------------------------------------------------------------------|

e:-0-2-3-0-0-5-0-0-7-0-0-8-7-5-8-7-5-7-8-10--------------------------------|
B:------------------------------------------10-8-7\------------------------|
G:-------------------------------------------------------------------------|
D:-------------------------------------------------------------------------|
A:-------------------------------------------------------------------------|
E:-------------------------------------------------------------------------|

VERSE 

e:-------------------------------------------------------------------------|
B:--------------------------------------------------5-8-5~~----------------|
G:-------------------------------------------------------------------------|
D:-------------------7-7-7~-------------7-7-7-9-9-9------------------------|
A:-2-2-2-5-5-5-2-2-2-5-5-5~-2-2-2-5-5-5-5-5-5-7-7-7------------------------|
E:-0-0-0-3-3-3-0-0-0--------0-0-0-3-3-3------------------------------------|
   p.m. . . . . . . . . . . . . . . . . . . . . . .

BRIDGE 
e:-------------------------------------------------------------------------|
B:-------------------------------------------------------------------------|
G:-------------------------------------------------------------------------|
D:-5-5-5-7-7-7-5-5-5-7-7-7---4-----------7---------------------------------|
A:-3-3-3-5-5-5-3-3-3-5-5-5---2-----------5---------------------------------|
E:-------------------------------------------------------------------------|
  p.m. . . . . . . . . . .

CHORUS 
e:-------------------------------------------------------------------------|
B:-------------------------------------------------------------------------|
G:---------7---9---7-------5---7-------------------------------------------|
D:-2---5---7---9---7---5---5---7------------------------2 TIMES------------|
A:-2---5---5---7---5---5---3---5-------------------------------------------|
E:-0---3---------------3---------------------------------------------------|

Before the 2nd verse, play this :
e:-0-2-3-0-0-5-0-0-7-0-0-8-7-5-7-0-0-0---0-2-5-3-2-0-2---------------------|
B:-------------------------------------3-----------------------------------|
G:-------------------------------------------------------------------------|
D:-------------------------------------------------------------------------|
A:-------------------------------------------------------------------------|
E:-------------------------------------------------------------------------|

VERSE 

e:-------------------------------------------------------------------------|
B:-------------------------------------------------5-8-5~------------------|
G:-------------------------------------------------------------------------|
D:-------------------7-7-7-------------7-7-7-9-9-9-------------------------|
A:-2-2-2-5-5-5-2-2-2-5-5-5-2-2-2-5-5-5-5-5-5-7-7-7-------------------------|
E:-0-0-0-3-3-3-0-0-0-------0-0-0-3-3-3-------------------------------------|
   p.m. . . . . . . . . . . . . . . . . . . . . . .

BRIDGE (1:42)
e:-----------------3-3-2-2-3-3-2-2-----------------3-3-2-2-----------------|
B:-5-5-3-3-5-5-3-3-3-3-3-3-3-3-3-3-5-5-3-3-5-5-3-3-3-3-3-3-----------------|
G:-5-5-5-5-5-5-5-5-2-2-2-2-2-2-2-2-5-5-5-5-5-5-5-5-2-2-2-2---4-----------7-|
D:-5-5-5-5-5-5-5-5-0-0-0-0-0-0-0-0-5-5-5-5-5-5-5-5-0-0-0-0---2-----------5-|
A:-3-3-3-3-3-3-3-3-----------------3-3-3-3-3-3-3-3-------------------------|
E:-------------------------------------------------------------------------|

CHORUS (1:57)
e:-------------------------------------------------------------------------|
B:-------------------------------------------------------------------------|
G:---------7---9---7-------5---7-------------------------------------------|
D:-2---5---7---9---7---5---5---7------------------------2 TIMES------------|
A:-2---5---5---7---5---5---3---5-------------------------------------------|
E:-0---3---------------3---------------------------------------------------|

e:-------------------------------------------------------------------------|
B:-------------------------------------------------------------------------|
G:-------------------------------------------------------------------------|
D:------------7-7-7--5-5-5~------------------------------------------------|
A:-2---5-5-5--5-5-5--3-3-3~------------------------------------------------|
E:-0---3-3-3---------------------------------------------------------------|
  p.m. . . . . . . . . . .
[ Tab from: http://www.guitartabs.cc/tabs/n/nightwish/over_the_hills_and_far_away_tab_ver_2.html ]
Ater that, there's no guitar

RIFF x 2
e:-0-2-3-0-0-5-0-0-7-0-0-8-7-5-7-0-0-0---0-2-5-3-2-------------------------|
B:-------------------------------------3-----------------------------------|
G:-------------------------------------------------------------------------|
D:-------------------------------------------------------------------------|
A:-------------------------------------------------------------------------|
E:-------------------------------------------------------------------------|

e:-0-2-3-0-0-5-0-0-7-0-0-8-7-5-8-7-5-7-8-10--------------------------------|
B:------------------------------------------10-8-7\------------------------|
G:-------------------------------------------------------------------------|
D:-------------------------------------------------------------------------|
A:-------------------------------------------------------------------------|
E:-------------------------------------------------------------------------|

e:-------------------------------------------------------------------------|
B:-------------------------------------------------------------------------|
G:-------------------------------------------------------------------------|
D:-------------------------------------------------------------------------|
A:-2---2-2-2-2---2-------2---2-2-2-2---2-2-2-2---2-2-2-2-2-2-2-2-----------|
E:-0---0-0-0-0---0-------0---0-0-0-0---0-0-0-0---0-0-0-0-0-0-0-0-----------|
   p.m. . . . . . .          p.m. . . . . . . . . . . . . . . . .

GUITAR SOLO (2:56)
OK, I can't transcribe the solo (and anyway I can't play it...)
This is just the way I play this part. * = harmonic

e:-0-2-3-0-0-5-0-0-7-0-0-8-0-0-5/-0-0-0-0-10~~-----------------------------|
B:--------------------------------------------8p7p5h7-8p7p5h7-8p7h5--------|
G:------------------------------------------------------------------7-5----|
D:----------------------------------------------------------------------7-5|
A:-------------------------------------------------------------------------|
E:-------------------------------------------------------------------------|

e:-----------------------------------------12-12-12-12--14-14-14-14--15-15-|
B:-------------------------2/4-4/5-5/7-7/9~--------------------------------|
G:-------------------------------------------------------------------------|
D:----4-----7---4-----7----------------------------------------------------|
A:-7----5-7---7---5-7---7--------------------------------------------------|
E:-------------------------------------------------------------------------|

e:-15-15--17-17-17-17--19-19-19-19--22-22-22-22~~--------------------------|
B:-------------------------------------------------------------------------|
G:-------------------------------------------------------------------------|
D:-------------------------------------------------------------------------|
A:-------------------------------------------------------------------------|
E:-------------------------------------------------------------------------|

BRIDGE 
e:-------------15-15-15--10-10-10--7-7-7--3-3-3----------------------------|
B:-------------15-15-15--10-10-10--7-7-7--3-3-3----------------------------|
G:-------------------------------------------------------------------------|
D:-5-5-5-7-7-7----------------------------------5-5-5-7-7-7---4----------7-|
A:-3-3-3-5-5-5----------------------------------3-3-3-5-5-5---2----------5-|
E:-------------------------------------------------------------------------|
  p.m. . . . . . . . . . .

CHORUS 
e:-------------------------------------------------------------------------|
B:-------------------------------------------------------------------------|
G:---------9--11---9-------7---9-------------------------------------------|
D:-4---7---9--11---9---7---7---9-------------4 TIMES-----------------------|
A:-4---7---7---9---7---7---5---7-------------------------------------------|
E:-2---5---------------5---------------------------------------------------|

e:---2-4-4/5~--2-0---2-4-4/5-4-0----2-4-4/5~--2-0---2-4-4/5-7-9~~----------|
B:-2---------------2--------------2---------------2------------------------|
G:-------------------------------------------------------------------------|
D:-------------------------------------------------------------------------|
A:-------------------------------------------------------------------------|
E:-------------------------------------------------------------------------|

e:-------------------------------------------------------------------------|
B:-------------------------------------------------------------------------|
G:---------9--11---9-------7---9-------------------------------------------|
D:-4---7---9--11---9---7---7---9-------------FADE OUT...-------------------|
A:-4---7---7---9---7---7---5---7-------------------------------------------|
E:-2---5---------------5---------------------------------------------------|
Comments