Nightwish - Over The Hills And Far Away Chords & Tabs

 

Over The Hills And Far Away Chords & Tabs

Nightwish Chords & Tabs

Version: 1 Type: Tab 0 ratings
1 star 2 stars 3 stars 4 stars 5 stars
comments

Over The Hills And Far Away Tab

   
Nightwish - Over The Hills And Far Away
e-mail: darklove01@hotmail.com
As recorded by Nightwish
(From the 2001 EP OVER THE HILLS AND FAR AWAY)

Music by Gary Moore
Transcribed by Jari Aarniala

Gtr I (E A D G B E) - ?Solo?
Gtr II (E A D G B E) - ?Rhythym?

Q=136
4/4
Gtr I
Wx8 Wx7
|------------------|--------|
|------------------|--------|
|------------------|--------|
|------------------|--------|
|------------------|--------|
|------------------|--------|


Em
Gtr I
|-3-| |-3-| |-3-| |-3-| |-3-| |-3-| |-3-| |-3-| |-3-|
H Q E E E E E E E E E E E E E E E E E E E E E E E E E E E
|--------------|-------5-----7-----8-7-5-|-7-------------5----------|
|----------5-7-|-8-5-5---5-5---5-5-------|---5-5-5---5-7---8-7-5-7--|
|--------------|-------------------------|---------7----------------|
|--------------|-------------------------|--------------------------|
|--------------|-------------------------|--------------------------|
|--------------|-------------------------|--------------------------|
|
| Gtr II
| |-3-|
| W E E H E E E E E H E E
|--------------|-------------------------|--------------------------|
|--------------|-------------------------|--------------------------|
|--------------|-------------------------|--------------------------|
|--------------|-2---------------------2-|-2-----------------2------|
|--------------|-2---------------------2-|-2-----------------2------|
|--------------|-0---------------------0-|-0-----------------0------|


|-3-| |-3-| |-3-| |-3-|
E E E E E E E E E E E E
|-------5-----7-----8-5-7-|
|-8-5-5---5-5---5-5-------|
|-------------------------|
|-------------------------|
|-------------------------|
|-------------------------|
|
| E E H E E
|-------------------------|
|-------------------------|
|-------------------------|
|-2-----------------2-----|
|-2-----------------2-----|
|-0-----------------0-----|


|-3-| |-3-| |-3-| |-3-| |-3-| |-3-| |-3-| |-3-|
E E E E E E E E E E E E E E E E E E E E E E E E
|-8-5-5-5-7-8-10-8-7-5-----|-------5-----7-----8-7-5--|
|----------------------8-7-|-8-5-5---5-5---5-5--------|
|--------------------------|--------------------------|
|--------------------------|--------------------------|
|--------------------------|--------------------------|
|--------------------------|--------------------------|
|
| W E E H E E
|--------------------------|--------------------------|
|--------------------------|--------------------------|
|--------------------------|--------------------------|
|--------------------------|-2-----------------2------|
|--------------------------|-2-----------------2------|
|--------------------------|-0-----------------0------|


|-3-| |-3-| |-3-| |-3-| |-3-| |-3-| |-3-| |-3-|
E E E E E E E E E E E E E E E E E E E E E E E E
|-7-------------5---------|-------5-----7-----8-5-7-|
|---5-5-5---5-7---8-7-5-7-|-8-5-5---5-5---5-5-------|
|---------7---------------|-------------------------|
|-------------------------|-------------------------|
|-------------------------|-------------------------|
|-------------------------|-------------------------|
|
| E E H E E E E H E E
|-------------------------|-------------------------|
|-------------------------|-------------------------|
|-------------------------|-------------------------|
|-2-----------------2-----|-2-----------------2-----|
|-2-----------------2-----|-2-----------------2-----|
|-0-----------------0-----|-0-----------------0-----|


|-3-| |-3-| |-3-| |-3-|
E E E E E E E E E E E E
|-8-5-5-5-7-8-10-8-7-5------|
|----------------------8-7--|
|---------------------------|
|---------------------------|
|---------------------------|
|---------------------------|
|
| W
|---------------------------|
|---------------------------|
|---------------------------|
|---------------------------|
|---------------------------|
|---------------------------|


Em G Em
\3.5_______|
Q H. W W
|--------------------------------|-------------------------|-------------------------|
|--------------------------------|-------------------------|-------------------------|
|-<4>----------------------------|-------------------------|-------------------------|
|--------------------------------|-------------------------|-------------------------|
|--------------------------------|-------------------------|-------------------------|
|--------------------------------|-------------------------|-------------------------|
|
| PM------| PM------| PM--------| PM------| PM--------| PM------| PM---
| |---3---| |-3--| |-3-| |-3-| |-3-| |-3-| |-3-| |-3-| |-3-| |-3-| |-3-| |-3-|
| E E E E E E E E E E E E E E E E E E E E E E E E E E E E E E E E E E E E
|--------------------------------|-------------------------|-------------------------|
|--------------------------------|-------------------------|-------------------------|
|--------------------------------|-------------------------|-------------------------|
|--------------------------------|-------------------------|-------------------------|
|--2-----2-2--2--2-2-2-2-2-2-2-2-|-5-5-5-5-5-5-5-5-5-5-5-5-|-2-2-2-2-2-2-2-2-2-2-2-2-|
|--0-----0-0--0--0-0-0-0-0-0-0-0-|-3-3-3-3-3-3-3-3-3-3-3-3-|-0-0-0-0-0-0-0-0-0-0-0-0-|


D
\0.25/ \0.25/ \0.25/ \0.25/ \0.25/ \0.25/ \0.25/ \0.25/ \0.25/ \0.25/ \0.25/ \0.25/
|-------3-------| |-------3-------| |-------3-------| |-------3-------|
E E E E E E E E E E E E
|--------------------------------------------------------------------------------------------|
|--------------------------------------------------------------------------------------------|
|-<7>-----<7>-----<7>-----<7>-----<7>-----<7>-----<7>-----<7>-----<7>-----<7>-----<7>-----<7>|
|-<7>-----<7>-----<7>-----<7>-----<7>-----<7>-----<7>-----<7>-----<7>-----<7>-----<7>-----<7>|
|--------------------------------------------------------------------------------------------|
|--------------------------------------------------------------------------------------------|
|
|-----------------| PM-----------------------------| PM-----|
| |-------3-------| |-------3-------| |-------3-------| |-------3-------|
| E E E E E E E E E E E E
|--------------------------------------------------------------------------------------------|
|--------------------------------------------------------------------------------------------|
|--------------------------------------------------------------------------------------------|
|--7-------7-------7-------7-------7-------7-------7-------7-------7-------7-------7-------7-|
|--5-------5-------5-------5-------5-------5-------5-------5-------5-------5-------5-------5-|
|--------------------------------------------------------------------------------------------|


Em G
\7____________|
H H W
|----------------------------|-------------------------|
|----------------------------|-------------------------|
|-<7>------------x-----------|-------------------------|
|-<7>------------x-----------|-------------------------|
|----------------------------|-------------------------|
|----------------------------|-------------------------|
|
| PM----| PM------| PM--------| PM---------------
| |--3--| |-3-| |-3-| |-3-| |-3-| |-3-| |-3-| |-3-|
| E E E E E E E E E E E E E E E E E E E E E E E E
|----------------------------|-------------------------|
|----------------------------|-------------------------|
|----------------------------|-------------------------|
|----------------------------|-------------------------|
|--2---2-2-2-2-2-2-2-2-2-2-2-|-5-5-5-5-5-5-5-5-5-------|
|--0---0-0-0-0-0-0-0-0-0-0-0-|-3-3-3-3-3-3-3-3-3-3-5-7-|


D Em
~
|-3--|
W Q E E E H
|-------------------------|-----------------------------|
|-------------------------|-----------------------------|
|-------------------------|---------9h12-9--------------|
|-------------------------|-----------------------------|
|-------------------------|-----------------------------|
|-------------------------|-----------------------------|
|
|-----| PM------| PM--------| PM-------| PM|
| |-3-| |-3-| |-3-| |-3-| |-3-| |-3--| |-3-| |-3-|
| E E E E E E E E E E E E E E E E E E E E E E E E
|-------------------------|-----------------------------|
|-------------------------|-----------------------------|
|-------------------------|-----------------------------|
|-7-7-7-7-7-7-7-7-7-7-7-7-|-9-9-9-9-9--9-9-9-9-9-9-9----|
|-5-5-5-5-5-5-5-5-5-5-5-5-|-7-7-7-7-7--7-7-7-7-7-7-7----|
|-------------------------|-----------------------------|


C
Gtr II
PM--| PM------| PM--------| PM------| PM---
|-3-| |-3-| |-3-| |-3-| |-3-| |-3-| |-3-| |-3-|
E E E E E E E E E E E E E E E E E E E E E E E E
||--------------------------|-------------------------|
||o-------------------------|-------------------------|
||--------------------------|-------------------------|
||--5-5-5-5-5-5-5-5-5-5-5-5-|-5-5-5-5-5-5-5-5-5-5-5-5-|
||o-3-3-3-3-3-3-3-3-3-3-3-3-|-3-3-3-3-3-3-3-3-3-3-3-3-|
||--------------------------|-------------------------|


1.
D
-----| PM------| PM--------| PM------| PM|
|-3-| |-3-| |-3-| |-3-| |-3-| |-3-| |-3-| |-3-|
E E E E E E E E E E E E E E E E E E E E E E E E
|-------------------------|----------------------------||
|-------------------------|---------------------------o||
|-------------------------|----------------------------||
|-7-7-7-7-7-7-7-7-7-7-7-7-|-7-7-7-7-7-7-7-7-7-7-7-7----||
|-5-5-5-5-5-5-5-5-5-5-5-5-|-5-5-5-5-5-5-5-5-5-5-5-5---o||
|-------------------------|----------------------------||


2.
Bm D Em G D Em
PM--| PM------|
|-3-| |-3-| |-3-|
E E E E E E E E E Q H. Q H H H H
|-----------------------|-------------------||------------|-----------|
|-----------------------|-(3)---------------||o-----------|-----------|
|-------------------7---|--4---------2------||------------|-7----9----|
|-7-7-7-7-7-7-7-7-7-7---|--4---------0------||--2----5----|-7----9----|
|-5-5-5-5-5-5-5-5-5-5---|--2--------(0)-----||o-2----5----|-5----7----|
|-----------------------|-------------------||--0----3----|-----------|


1. 2.
D G C D C D
Gtr I
|-3-|
W W H Q E E E
|-----------|------------||---------------|
|-----------|-----------o||-----------5-7-|
|-----------|------------||---------------|
|-----------|------------||---------------|
|-----------|-----------o||---------------|
|-----------|------------||---------------|
|
| Gtr II
| H H H H H H
|-----------|------------||---------------|
|-----------|-----------o||---------------|
|-7---------|-5----7-----||-5----7--------|
|-7----5----|-5----7-----||-5----7--------|
|-5----5----|-3----5----o||-3----5--------|
|------3----|------------||---------------|


Em
|-3-| |-3-| |-3-| |-3-| |-3-| |-3-| |-3-| |-3-|
E E E E E E E E E E E E E E E E E E E E E E E E
|-------5-----7-----8-7-5-|-7-------------5----------|
|-8-5-5---5-5---5-5-------|---5-5-5---5-7---8-7-5-7--|
|-------------------------|---------7----------------|
|-------------------------|--------------------------|
|-------------------------|--------------------------|
|-------------------------|--------------------------|
|
| W W
|-------------------------|--------------------------|
|-------------------------|--------------------------|
|-------------------------|--------------------------|
|-------------------------|--------------------------|
|-------------------------|--------------------------|
|-------------------------|--------------------------|


Em G
W W
|-------------------------|-------------------------|
|-------------------------|-------------------------|
|-------------------------|-------------------------|
|-------------------------|-------------------------|
|-------------------------|-------------------------|
|-------------------------|-------------------------|
|
| PM-------------------------------------------------
| |-3-| |-3-| |-3-| |-3-| |-3-| |-3-| |-3-| |-3-|
| E E E E E E E E E E E E E E E E E E E E E E E E
|-------------------------|-------------------------|
|-------------------------|-------------------------|
|-------------------------|-------------------------|
|-2---2-2-2---2---2-2-2---|-5---5-5-5---5---5-5-5---|
|-2---2-2-2---2---2-2-2---|-5---5-5-5---5---5-5-5---|
|-0---0-0-0---0---0-0-0---|-3---3-3-3---3---3-3-3---|


Em D
|-3--| |-3--| |-3--|
W Q E E E E E E E E E
|-------------------------|-------------------------------|
|-------------------------|-------------------------------|
|-------------------------|-------------------------------|
|-------------------------|----------------7--------------|
|-------------------------|------------7-9---10-9-7-------|
|-------------------------|---------10--------------10----|
|
|---------------------------------------------------|
| |-3-| |-3-| |-3-| |-3-| |-3-| |-3--| |-3--| |-3--|
| E E E E E E E E E E E E E E E E E E E E E E E E
|-------------------------|-------------------------------|
|-------------------------|-------------------------------|
|-------------------------|-7---7-7--7---7----7-7-7-------|
|-2---2-2-2---2---2-2-2---|-7---7-7--7---7----7-7-7-------|
|-2---2-2-2---2---2-2-2---|-5---5-5--5---5----5-5-5-------|
|-0---0-0-0---0---0-0-0---|-------------------------------|


Em G
~~~
Q H. W
|----------------------------|-------------------------|
|----------------------------|-------------------------|
|----------------------------|-------------------------|
|----------------------------|-------------------------|
|-[7]------------------------|-------------------------|
|----------------------------|-------------------------|
|
| PM---------------------------------------------------
| |-3--| |-3--| |-3-| |-3-| |-3-| |-3-| |-3-| |-3-|
| E E E E E E E E E E E E E E E E E E E E E E E E
|----------------------------|-------------------------|
|----------------------------|-------------------------|
|----------------------------|-------------------------|
|--2----2-2--2---2---2-2-2---|-5---5-5-5---5---5-5-5---|
|--2----2-2--2---2---2-2-2---|-5---5-5-5---5---5-5-5---|
|--0----0-0--0---0---0-0-0---|-3---3-3-3---3---3-3-3---|


D Em
~
W Q. E H
|-------------------------|-----------------------------|
|-------------------------|-----------------------------|
|-------------------------|--------------9--------------|
|-------------------------|--------------9--------------|
|-------------------------|------------7----------------|
|-------------------------|-----------------------------|
|
|--------------------------------------------------|
| |-3-| |-3-| |-3-| |-3-| |-3--| |-3-| |-3-| |-3-|
| E E E E E E E E E E E E E E E E E E E E E E E E
|-------------------------|-----------------------------|
|-------------------------|-----------------------------|
|-7---7-7-7---7---7-7-7---|-9----9-9-9---9---9-9-9------|
|-7---7-7-7---7---7-7-7---|-9----9-9-9---9---9-9-9------|
|-5---5-5-5---5---5-5-5---|-7----7-7-7---7---7-7-7------|
|-------------------------|-----------------------------|


1. 2.
C Csus2 C Csus2 Dsus4D Dsus4D Bm D
Gtr II
H H H H H H H H H. Q
||--------------|-------------|-3------2----|-3------2-----||----------------|
||o--5----3-----|-5-----3-----|-3------3----|-3------3----o||-(3)------------|
||---5----5-----|-5-----5-----|-2------2----|-2------2-----||--4--------2----|
||---5----5-----|-5-----5-----|-0------0----|-0------0-----||--4--------0----|
||o--3----3-----|-3-----3-----|-------------|-------------o||--2-------(0)---|
||--------------|-------------|-------------|--------------||----------------|


Em G D Em D G C D
Gtr II
H H H H H H H H
||------------|-----------|-----------|-----------||
||o-----------|-----------|-----------|----------o||
||------------|-7----9----|-7---------|-5----7----||
||--2----5----|-7----9----|-7----5----|-5----7----||
||o-2----5----|-5----7----|-5----5----|-3----5---o||
||--0----3----|-----------|------3----|-----------||


Em G D
2/4 4/4
PM------------------------------|
|-3-| |-3-| |-3-| |-3-|
E E E E E E E E E E E E E E E E Wx8
|---------------------|-------------|--------|
|---------------------|-------------|--------|
|---------------------|-7-7-7-7-7-7-|--------|
|-2---2-2-2-5---5-5-5-|-7-7-7-7-7-7-|--------|
|-2---2-2-2-5---5-5-5-|-5-5-5-5-5-5-|--------|
|-0---0-0-0-3---3-3-3-|-------------|--------|


Gtr I
|-3--|
Wx3 H Q E E E
|------------|-----------------|
|------------|-------------5-7-|
|------------|-----------------|
|------------|-----------------|
|------------|-----------------|
|------------|-----------------|
|
| Gtr II
| Wx3 H. Q
|------------|-----------------|
|------------|-----------------|
|------------|-----------------|
|------------|----------x\-----|
|------------|----------x\-----|
|------------|----------x\-----|


|-3-| |-3-| |-3-| |-3-| |-3-| |-3-| |-3-| |-3-|
E E E E E E E E E E E E E E E E E E E E E E E E
|-------5-----7-----8-7-5-|-7-------------5---------|
|-8-5-5---5-5---5-5-------|---5-5-5---5-7---8-7-5-7-|
|-------------------------|---------7---------------|
|-------------------------|-------------------------|
|-------------------------|-------------------------|
|-------------------------|-------------------------|
|
| PM------------------------------------------|
| |-3-| |-3-| |-3-| |-3-|
| E E E Q E E E Q E E E Q E E E E E
|-------------------------|-------------------------|
|-------------------------|-------------------------|
|-------------------------|-------------------------|
|-2-2-2-------2-2-2-------|-2-2-2-------2-2-2-2-----|
|-2-2-2-------2-2-2-------|-2-2-2-------2-2-2-2-----|
|-0-0-0-------0-0-0-------|-0-0-0-------0-0-0-0-----|


|-3-| |-3-| |-3-| |-3-| |-3-| |-3-| |-3-| |-3-|
E E E E E E E E E E E E E E E E E E E E E E E E
|-------5-----7-----8-5-7-|-8-5-5-5-7-8-10-8-7-5---5-|
|-8-5-5---5-5---5-5-------|----------------------8---|
|-------------------------|--------------------------|
|-------------------------|--------------------------|
|-------------------------|--------------------------|
|-------------------------|--------------------------|
|
| PM-----------------------------------------------|
| |-3-| |-3-| |-3-| |-3-| |-3-| |-3-| |-3-| |-3-|
| E E E E E E E E E E E E E E E E E E E E E E E E
|-------------------------|--------------------------|
|-------------------------|--------------------------|
|-------------------------|--------------------------|
|-2-2-2-2---2-2-2-2-2-2-2-|-2-2-2-2-2-2--2-2-2-2-2-2-|
|-2-2-2-2---2-2-2-2-2-2-2-|-2-2-2-2-2-2--2-2-2-2-2-2-|
|-0-0-0-0---0-0-0-0-0-0-0-|-0-0-0-0-0-0--0-0-0-0-0-0-|


|--3--| |---3---| |--3--| |--3--|
E E E E +E E E E E E E E
||----12-12--12-(12)-14-12----------------|
||-12----------------------15-12----------|
||-------------------------------14-12-14-|
||----------------------------------------|
||----------------------------------------|
||----------------------------------------|
|
| PM-------------------------------------
| E E H.
||----------------------------------------|
||----------------------------------------|
||----------------------------------------|
||--2-------------------------------------|
||--2-------------------------------------|
||--0-------------------------------------|

[ Tab from: http://www.guitartabs.cc/tabs/n/nightwish/over_the_hills_and_far_away_tab.html ]
|--3--| |---3---| |--3--| |--3--| |---3---| |--3--| |--3--|
E E E E +E E E E E Q E E E E +E E E E E E E E
|----12-12-12-(12)-14-12----------|----12-12--12-(12)-14-15-14-12-14-12----|
|-12---------------------15-12-15-|-12----------------------------------15-|
|---------------------------------|----------------------------------------|
|---------------------------------|----------------------------------------|
|---------------------------------|----------------------------------------|
|---------------------------------|----------------------------------------|
|
|-----------------------------------|
| |--3--|
| E E E E E H E E H.
|---------------------------------|----------------------------------------|
|---------------------------------|----------------------------------------|
|---------------------------------|----------------------------------------|
|--2--2--2--2---------------------|--2-------------------------------------|
|--2--2--2--2---------------------|--2-------------------------------------|
|--0--0--0--0---------------------|--0-------------------------------------|


|--3--| |--3--| |--3--| |---3---|
E E E E E E E E E E +E E
|-12------------------------------------|
|----15-12----------12------------------|
|----------14-12-14------------------14-|
|----------------------14-14-14-(14)----|
|---------------------------------------|
|---------------------------------------|
|
| W
|---------------------------------------|
|---------------------------------------|
|---------------------------------------|
|---------------------------------------|
|---------------------------------------|
|---------------------------------------|


|--3--| |---3---| |--3--| |--3--| |--3--| |---3---| |--3--|
E E E E +E E E E E E E E E E E E +E E E E E Q
|----12-12-12-(12)-14-12----------------|----12-12-12-(12)-14-12----------|
|-12---------------------15-12----------|-12---------------------15-12-15-|
|------------------------------14-12-14-|---------------------------------|
|---------------------------------------|---------------------------------|
|---------------------------------------|---------------------------------|
|---------------------------------------|---------------------------------|
|
| PM------|
| |--3--|
| W E E E E E H
|---------------------------------------|---------------------------------|
|---------------------------------------|---------------------------------|
|---------------------------------------|---------------------------------|
|--2------------------------------------|--2--2--2--2---------------------|
|--2------------------------------------|--2--2--2--2---------------------|
|--0------------------------------------|--0--0--0--0---------------------|


|--3--| |---3---| |--3--| |--3--|
E E E E +E E E E E E E E
|----12-12-12-(12)-14-15-14-12-14-12----|
|-12---------------------------------15-|
|---------------------------------------|
|---------------------------------------|
|---------------------------------------|
|---------------------------------------|
|
| PM------|
| |--3--|
| E E E E E H
|---------------------------------------|
|---------------------------------------|
|---------------------------------------|
|--2--2--2--2---------------------------|
|--2--2--2--2---------------------------|
|--0--0--0--0---------------------------|


Em
|--3--| |--3--| |--3--| |--3--| |-3-| |-3-| |-3-| |-3-|
E E E E E E E E E E E E E E E E E E E E E E E E
|-12-----------------------------0--2-||-3-0-0-5-0-0-7-0-0-8-0-0--|
|----15-12-15-12----12----------------||--------------------------|
|----------------14----14-12-11-------||--------------------------|
|-------------------------------14-12-||--------------------------|
|-------------------------------------||--------------------------|
|-------------------------------------||--------------------------|
|
| PM--------------------|
| |-3-| |-3-| |-3-| |-3-|
| W E E E E E E E E E E E E
|-------------------------------------||--------------------------|
|-------------------------------------||--------------------------|
|-------------------------------------||--------------------------|
|-------------------------------------||-2---2-2-2---2---2-2-2----|
|-------------------------------------||-2---2-2-2---2---2-2-2----|
|-------------------------------------||-0---0-0-0---0---0-0-0----|


G
\0.25 |
~~~
|----3-----| |---3---|
S S E E E E E E +E Q
|-8s12---0---0---0---0---0------------------------|
|----------------------------[3]---(3)------[3]---|
|-------------------------------------------------|
|-------------------------------------------------|
|-------------------------------------------------|
|-------------------------------------------------|
|
| PM-----------------------------------------------
| |---3----| |--3--| |----3----| |-----3-----|
| E E E E E E E E E E E E
|-------------------------------------------------|
|-------------------------------------------------|
|-------------------------------------------------|
|-5--------5-5-5-------5---------5--5-----5-------|
|-5--------5-5-5-------5---------5--5-----5-------|
|-3--------3-3-3-------3---------3--3-----3-------|


Em
T T T T T T T T T T T T
|-----6-----| |-----6-----| |-----6-----| |-----6-----|
S S S S S S S S S S S S S S S S S S S S S S S S
|-12p0-12p0-12p0-10p0-10p0-10p0-12p0-12p0-12p0-10p0-10p0-10p0-|
|-------------------------------------------------------------|
|-------------------------------------------------------------|
|-------------------------------------------------------------|
|-------------------------------------------------------------|
|-------------------------------------------------------------|
|
|--------------------------------------------------------|
| |----3----| |----3----| |----3----| |----3----|
| E E E E E E E E E E E E
|-------------------------------------------------------------|
|-------------------------------------------------------------|
|-------------------------------------------------------------|
|--2---------2----2----2---------2---------2----2----2--------|
|--2---------2----2----2---------2---------2----2----2--------|
|--0---------0----0----0---------0---------0----0----0--------|


D
~~~~
|------6-------| |------6------|
S S S S S S S S S S S S H
|-12p10----12h14p12p10------------------------------|
|-------12-------------12p10------------------------|
|----------------------------12p11p9----------------|
|------------------------------------[12]-----------|
|---------------------------------------------------|
|---------------------------------------------------|
|
| PM------------------------------------------------
| |-----3-----| |-----3-----| |-3--| |-3-|
| E E E E E E E E E E E E
|---------------------------------------------------|
|---------------------------------------------------|
|--7-----------7-----7-----7-----------7----7-7-7---|
|--7-----------7-----7-----7-----------7----7-7-7---|
|--5-----------5-----5-----5-----------5----5-5-5---|
|---------------------------------------------------|


Em G
PM| PM| PM| PM| ~~~~~~~
|--3--| |--3--| |--3--| |--3--| |-----3-----|
E E E E E E E E E E E E q q q H
|-------------------------------------|------------------------------------|
|-------------------------------------|------[12]---15---[15]b17-----------|
|-12-------14-------12-------14-------|-12---------------------------------|
|----14-14----14-14----14-14----14-14-|------------------------------------|
|-------------------------------------|------------------------------------|
|-------------------------------------|------------------------------------|
|
|------------------------------------------------------------------------|
| |--3--| |--3--| |--3--| |--3--| |--3--| |-3--| |---3---| |-3-|
| E E E E E E E E E E E E E E E E E E E E E E E E
|-------------------------------------|------------------------------------|
|-------------------------------------|------------------------------------|
|-------------------------------------|------------------------------------|
|--2-----2--2--2-----2-----2--2--2----|--5-----5--5--5-----5-------5-5-5---|
|--2-----2--2--2-----2-----2--2--2----|--5-----5--5--5-----5-------5-5-5---|
|--0-----0--0--0-----0-----0--0--0----|--3-----3--3--3-----3-------3-3-3---|


D
|---------------3----------------| |---------------3----------------|
S S S S S S S S S S S S S S S S S S S S S S S S
|-12-12-12-12-14-14-14-14-15-15-15-15-17-17-17-17-19-19-19-19-22-22-22-22-|
|-------------------------------------------------------------------------|
|-------------------------------------------------------------------------|
|-------------------------------------------------------------------------|
|-------------------------------------------------------------------------|
|-------------------------------------------------------------------------|
|
| PM----------------------------------------------------------------------
| |-----3-----| |-----3-----| |-----3-----| |-----3-----|
| E E E E E E E E E E E E
|-------------------------------------------------------------------------|
|-------------------------------------------------------------------------|
|--7-----------7-----7-----7-----------7-----------7-----7-----7----------|
|--7-----------7-----7-----7-----------7-----------7-----7-----7----------|
|--5-----------5-----5-----5-----------5-----------5-----5-----5----------|
|-------------------------------------------------------------------------|


Em
TP ~~~~~
Q +H.
|-22b24======(22)r------------|
|-----------------------------|
|-----------------------------|
|-----------------------------|
|-----------------------------|
|-----------------------------|
|
|--------------------| ~~~
| |---3---| |--3--|
| E E E E E E H
|-----------------------------|
|-----------------------------|
|--9-------9---9---9----------|
|--9-------9---9---9----------|
|--7-------7---7---7---[7]----|
|-----------------------------|


C D
W W W
|-------------------------|-------------------------|-------------------------|
|-------------------------|-------------------------|-------------------------|
|-------------------------|-------------------------|-------------------------|
|-------------------------|-------------------------|-------------------------|
|-------------------------|-------------------------|-------------------------|
|-------------------------|-------------------------|-------------------------|
|
| PM--| PM------| PM--------| PM------| PM--------| PM------| PM---
| |-3-| |-3-| |-3-| |-3-| |-3-| |-3-| |-3-| |-3-| |-3-| |-3-| |-3-| |-3-|
| E E E E E E E E E E E E E E E E E E E E E E E E E E E E E E E E E E E E
|-------------------------|-------------------------|-------------------------|
|-------------------------|-------------------------|-------------------------|
|-------------------------|-------------------------|-------------------------|
|-5-5-5-5-5-5-5-5-5-5-5-5-|-5-5-5-5-5-5-5-5-5-5-5-5-|-7-7-7-7-7-7-7-7-7-7-7-7-|
|-3-3-3-3-3-3-3-3-3-3-3-3-|-3-3-3-3-3-3-3-3-3-3-3-3-|-5-5-5-5-5-5-5-5-5-5-5-5-|
|-------------------------|-------------------------|-------------------------|


\0.25/ \0.25/ \0.25/ \0.25/ \0.25/ \0.25/
|---3---| |---3---| |-------3-------| |-------3-------|
E E E E E E E E E E E E
|----------------------------------------------------------------------------|
|-------------------------<7>-----<7>-----<7>--------------------------------|
|-<7>-<7>-<7>-------------------------------------<7>-----<7>-----<7>--------|
|-------------<7>-<7>-<7>----------------------------------------------------|
|----------------------------------------------------------------------------|
|----------------------------------------------------------------------------|
|
|---------| PM---------------------| PM-----|
| |---3---| |---3---| |-------3-------| |-------3-------|
| E E E E E E E E E E E E
|----------------------------------------------------------------------------|
|----------------------------------------------------------------------------|
|----------------------------------------------------------------------------|
|--7---7---7---7---7---7---7-------7-------7-------7-------7-------7---------|
|--5---5---5---5---5---5---5-------5-------5-------5-------5-------5---------|
|----------------------------------------------------------------------------|


C
Gtr II
PM--| PM------| PM--------| PM------| PM---
|-3-| |-3-| |-3-| |-3-| |-3-| |-3-| |-3-| |-3-|
E E E E E E E E E E E E E E E E E E E E E E E E
|-------------------------|-------------------------|
|-------------------------|-------------------------|
|-------------------------|-------------------------|
|-5-5-5-5-5-5-5-5-5-5-5-5-|-5-5-5-5-5-5-5-5-5-5-5-5-|
|-3-3-3-3-3-3-3-3-3-3-3-3-|-3-3-3-3-3-3-3-3-3-3-3-3-|
|-------------------------|-------------------------|


D Bm D
-----| PM------| PM|
|-3-| |-3-| |-3-| |-3-|
E E E E E E E E E E E E H. Q
|-------------------------|---------------|
|-------------------------|-(3)-----------|
|-------------------------|--4--------2---|
|-7-7-7-7-7-7-7-7-7-7-7-7-|--4--------0---|
|-5-5-5-5-5-5-5-5-5-5-5-5-|--2-------(0)--|
|-------------------------|---------------|


F#m A E F#m E A D E
Wx4 Wx4 H H H H H H H H 4x
|------------|------------||------------|------------|-----------|-----------||
|------------|------------||o-----------|------------|-----------|----------o||
|------------|------------||------------|-9----11----|-9---------|-7----9----||
|------------|------------||--4----7----|-9----11----|-9----7----|-7----9----||
|------------|------------||o-4----7----|-7-----9----|-7----7----|-5----7---o||
|------------|------------||--2----5----|------------|------5----|-----------||


1.
F#m A E F#m E A D E
Gtr I
|-3-|
Q Q Q H +W +H +Q Q Q. E H
||----2-4-4b5=======|=(4)----------|-(4)----(4)r--4--|-4b5---4-----||
||o-2---------------|--------------|-----------------|---------5--o||
||------------------|--------------|-----------------|-------------||
||------------------|--------------|-----------------|-------------||
||o-----------------|--------------|-----------------|------------o||
||------------------|--------------|-----------------|-------------||
|
| Gtr II
| H H H H H H H H
||------------------|--------------|-----------------|-------------||
||o-----------------|--------------|-----------------|------------o||
||------------------|--9-----11----|--9--------------|-7-------9---||
||--4----------7----|--9-----11----|--9------7-------|-7-------9---||
||o-4----------7----|--7------9----|--7------7-------|-5-------7--o||
||--2----------5----|--------------|---------5-------|-------------||


2.
D E F#m A
\3.75/
|-3-| |-3-| |--------5--------|
Q. E Q. E E E E E E E S S S S S S S S S S
|-4b5---7-7--------2-|-5p2-4p2---2-5p2-4p2---2-5p2-4p2-|
|--------------------|---------5-----------5-----------|
|--------------------|---------------------------------|
|--------------------|---------------------------------|
|--------------------|---------------------------------|
|--------------------|---------------------------------|
|
| H H H H
|--------------------|---------------------------------|
|--------------------|---------------------------------|
|-7-------9----------|---------------------------------|
|-7-------9----------|-4-----------7-------------------|
|-5-------7----------|-4-----------7-------------------|
|--------------------|-2-----------5-------------------|


E F#m
|------------------5-------------------|
S S S S S S S S S S S S S S S S S S S S
|---2-5p2-4p2---2-5p2--4p2---2-5p2-4p2---2-|
|-5-----------5------------5-----------5---|
|------------------------------------------|
|------------------------------------------|
|------------------------------------------|
|------------------------------------------|
|
| H H
|------------------------------------------|
|------------------------------------------|
|-9-------------------11-------------------|
|-9-------------------11-------------------|
|-7--------------------9-------------------|
|------------------------------------------|


E A D E
~
|-3-| |--3--| |-3-|
E. S E E E E E E E E E E E E E Q Q
|--------------------------|---------------|
|-5--5p2-------------------|---------------|
|--------4p2-4b6r4p2-------|---------------|
|--------------------4p2---|------------4--|
|------------------------4-|-0-2-4-0-2-----|
|--------------------------|---------------|
|
| H H H H
|--------------------------|---------------|
|--------------------------|---------------|
|-9------------------------|-7-------9-----|
|-9----------7-------------|-7-------9-----|
|-7----------7-------------|-5-------7-----|
|------------5-------------|---------------|


F#m A E F#m
~~~~
+Q H E E Q. +E +Q. E
|----------------|-----------------------|
|----------------|-----------------------|
|------2-------2-|-\4----(4)b6==(4)r-----|
|-(4)--------4---|-----------------------|
|----------------|-----------------------|
|----------------|-----------------------|
|
| H H H H
|----------------|-----------------------|
|----------------|-----------------------|
|----------------|--9-----------11-------|
|--4------7------|--9-----------11-------|
|--4------7------|--7------------9-------|
|--2------5------|-----------------------|


E A D E
~~~~~~
|-3-| |-3--|
Q q q H Q +E E E H
|---------------|----------------------|
|---7-9-9b10----|-9pb10===(9)r9p7------|
|-6-------------|-----------------9----|
|---------------|----------------------|
|---------------|----------------------|
|---------------|----------------------|
|
| H H H H
|---------------|----------------------|
|---------------|----------------------|
|-9-------------|-7---------------9----|
|-9-----7-------|-7---------------9----|
|-7-----7-------|-5---------------7----|
|-------5-------|----------------------|


F#m A E F#m
~~~~~~~~
|-3--| |-3-| |-3-|
Q +E E E Q Q Q Q Q Q Q +Q
|-------------------|---------------------|
|-------------------|-----9--9b10--(9)----|
|-6--(6)-6-6-6-7-9--|---9-----------------|
|-------------------|-9-------------------|
|-------------------|---------------------|
|-------------------|---------------------|
|
| H H H H
|-------------------|---------------------|
|-------------------|---------------------|
|-------------------|-9-----11------------|
|-4----------7------|-9-----11------------|
|-4----------7------|-7------9------------|
|-2----------5------|---------------------|


E A D E F#m A E F#m
~ ~ ~
|-3--| |-3-| |-----3------|
Q +E E E H Q Q Q H Q +Q H Q +Q +E E H
|----------------------|------------|----------------|----------------------|
|-9pb10===(9)r9p7------|------------|-----------7----|----------------------|
|-----------------9----|-9-7-6------|-4b6--(4)-------|-4pb5r(4)-(4)---------|
|----------------------|-------9----|----------------|--------------2--4----|
|----------------------|------------|----------------|----------------------|
|----------------------|------------|----------------|----------------------|
|
| H H H H H H H H
|----------------------|------------|----------------|----------------------|
|----------------------|------------|----------------|----------------------|
|-9--------------------|-7-----9----|----------------|-9--------------11----|
|-9---------------7----|-7-----9----|-4---------7----|-9--------------11----|
|-7---------------7----|-5-----7----|-4---------7----|-7---------------9----|
|-----------------5----|------------|-2---------5----|----------------------|


E A D E
~~~
|-3-|
Q Q Q Q Q Q. E H
|-------------|----------------*|
|-------------|----------------*|
|-------------|----------------*|
|-4-2---4--6--|-/7----6-[9]----*|
|-----4-------|----------------*|
|-------------|----------------*|
|
| H H H H
|-------------|----------------*|
|-------------|----------------*|
|-9-----------|--7-------9-----*|
|-9-----7-----|--7-------9-----*|
|-7-----7-----|--5-------7-----*|
|-------5-----|----------------*|


Duration Legend
---------------
W - whole; H - half; Q - quarter; E - 8th; S - 16th; T - 32nd; X - 64th; a - acciaccatura
+ - note tied to previous; . - note dotted; .. - note double dotted
Uncapitalized letters represent notes that are staccato (1/2 duration)
Irregular groupings are notated above the duration line
Duration letters will always appear directly above the note/fret number it represents the
duration for. Duration letters with no fret number below them represent rests. Multi-
bar rests are notated in the form Wxn, where n is the number of bars to rest for. Low
melody durations appear below the staff

Tablature Legend
----------------
h - hammer-on
p - pull-off
b - bend
pb - pre-bend
r - bend release (if no number after the r, then release immediately)
/\ - slide into or out of (from/to "nowhere")
s - legato slide
S - shift slide
 - natural harmonic
[n] - artificial harmonic
n(n) - tapped harmonic
~ - vibrato
tr - trill
T - tap
TP - trem. picking
PM - palm muting
\n/ - tremolo bar dip; n = amount to dip
\n - tremolo bar down
n/ - tremolo bar up
/n\ - tremolo bar inverted dip
= - hold bend; also acts as connecting device for hammers/pulls
<> - volume swell (louder/softer)
x - on rhythm slash represents muted slash
o - on rhythm slash represents single note slash

Misc Legend
-----------
| - bar
|| - double bar
||o - repeat start
o|| - repeat end
*| - double bar (ending)
: - bar (freetime)
$ - Segno
& - Coda
Tempo markers -  = BPM(8/16=s8/s16), where s8 = swing 8ths, s16 = swing 
16ths


They came for him one winter?s night.
Arrested, he was bound.
They said there?d been a robbery,
his pistol had been found.

They marched him to the station house,
he waited for the dawn.
And as they led him to the dock,
he knew that he?d been wronged.
"You stand accused of robbery,"
he heard the bailiff say.
He knew without an alibi,
tomorrow?s light would mourn his freedom.

Over the hills and far away,
for ten long years he?ll count the days.
Over the mountains and the seas,
a prisoner?s life for him there?ll be.

He knew that it would cost him dear,
but yet he dare not say.
Where he had been that fateful night,
a secret it must stay.
He had to fight back tears of rage.
His heart beat like a drum.
For with the wife of his best friend,
he spent his final night of freedom.

Over the hills and far away,
he swears he will return one day.
Far from the mountains and the seas,
back in her arms again he?ll be.
Over the hills and far away.

Over the hills and,
over the hills and,
over the hills and far away.

Each night within his prison cell,
he looks out through the bars.
He reads the letters that she wrote.
One day he?ll know the taste of freedom.

Over the hills and far away,
she prays he will return one day.
As sure as the rivers reach the seas,
back in his arms again she?ll be.

Over the hills and far away,
he swears he will return one day.
Far from the mountains and the seas,
back in her arms again he?ll be.

Over the hills and far away,
she prays he will return one day.
As sure as the rivers reach the sea,
back in her arms is where he?ll be.

Over the hills,
over the hills and far away.

Over the hills,
over the hills and far away.
Comments