Nightwish - Nemo Chords & Tabs

 

Nemo Chords & Tabs

Nightwish Chords & Tabs

Version: 1 Type: Tab 0 ratings
1 star 2 stars 3 stars 4 stars 5 stars
comments

Nemo Tab

Author/Artist: Nightwish
Title: Nemo
Album: Once
Transcribed by: Artur Derksen
Email: artschi2@icqmail.com

Tune your guitar one step down! ( D tuning)
Listen to the musik!
Inrto:
-----------------------------------------------------------------------------|
-----------------------------------------------------------------------------|
-------------------------7---------------------------------------------------|
---2---------5-----------7---------------------------------------------------|
---2---------5-----------5-x-xx-x-x------------------------------------------|
---0-x-xx-x--3-xx-xxx-xx-----------------------------------------------------|


---------------------------------------------------------------------------|--|
---------------------------------------------------------------------------|--|
---------7-----------------------------7-----------------------------------|--|
-2-------7------------2--------5-------7-----------------------------------|--|
-2-------5-x-x-x-x-x--2--------5-------5-x-x--xx---------------------------|--|
-0-x-x-x--------------0-xx-x-x-3-x-xxx-------------------------------------|--|


------------------------------------------------------------------------------|
------------------------------------------------------------------------------|
------------------2-------7-------5---------------5-----------5---------------|
--2-------4-------2-------7-------5-------5-------5-----5-----5-----3---------|
--2-------4-------0-x-x-x-5-x-x-x-3-x-x-x-5-------3-x-x-5-----3-x-x-3---------|
--0-x-x-x-2-x-x-x-------------------------3-x-x-x-------3-x-x-------1-x-x-xx--|
  x       x       x       x       x       x       x     x     x     x

---------------------------------------------------------------------------|--|
---------------------------------------------------------------------------|--|
---------7-----------------------------7-----------------------------------|--|
-2-------7------------2--------5-------7-----------------------------------|--|
-2-------5-x-x-x-x-x--2--------5-------5-x-x--xx---------------------------|--|
-0-x-x-x--------------0-xx-x-x-3-x-xxx-------------------------------------|--|

[ Tab from: http://www.guitartabs.cc/tabs/n/nightwish/nemo_tab.html ]
------------------------------------------------------------------------------|
------------------------------------------------------------------------------|
------7-------------9-------------9-------------------------------------7-----|
-2----7----2--------9-----222-----9---222----5/7\5\4--2--------------5--7-----|
-2----5----2--------7-----222-----7---222----5/7\5\4--2--------------5--5-----|
-0---------0--------------000---------000----3/5\3\2--0-x-x-x-x-x-x--3--------|
                                            (this part repeat 3x   )

--12/15\12~------------------------------12-12--10-10--14--12-----------------|
------------9p11-h12p11p9-----------12---12-12--12-12--12--12-----------------|
---------------------------12/14-12-------------------------------------------|
------------------------------------------------------------------------------|
------------------------------------------------------------------------------|
------------------------------------------------------------------------------|


------------------------------------------------------------------------------|
----------16-14-13----14-13--------13-----------------------------------------|
---14/-------------15-------15-14-----15-14-13-----------------12-------------|
------------------------------------------------15-14-12---14~-----14---------|
------------------------------------------------------------------------------|
------------------------------------------------------------------------------|


-------------10---12-~~~~~~~~~~-----------------------------------------------|
-9-11-12----------------------------------------------------------------------|
------------------------------------------------------------------------------|
------------------------------------------------------------------------------|
------------------------------------------------------------------------------|
------------------------------------------------------------------------------|


------------------------------------------------------------------------------|
------------------------------------------------------------------------------|
-----------------------------7------------------------------------------------|
--5--------------------------7---2--------------------------------------------|
--5--------------------------5---2--------------------------------------------|
--3-x--x-x--6--8--6--5-----------1--------------------------------------------|
  (listen to the musik)

------------------------------------------------------------------------------|
------------------------------------------------------------------------------|
--------------------------------3---------------------------------------------|
--5--------3---------5----------3--------3------------------------------------|
--5--------3---------5----------1x-xx-x--3------------------------------------|
--3-x--x-x-1-x-x-x-x-3-x-x--x-x----------1x-xxx-x-x---------------------------|
  x

End!
Comments