Nightwish - Nemo Chords & Tabs

 

Nemo Chords & Tabs

Nightwish Chords & Tabs

Version: 1 Type: Bass Tab 0 ratings
1 star 2 stars 3 stars 4 stars 5 stars
comments

Nemo Bass Tab

Nightwish-Nemo                                       


                       Made By Soso
Marco (Bass)
Pick

                                                          
G||------|------|------|------|--------------------------|
D||------|------|------|------|--------------------------|
A||------|------|------|------|--------------------------|
D||------|------|------|------|--0--0--0--0--0--0--0--0--|


                                                      
--------------------------|--------------------------|
--------------------------|--------------------------|
--------------------------|--------------------------|
--0--0--0--0--0--0--0--0--|--3--3--3--3--3--3--3--3--|


                                                      
--------------------------|--------------------------|
--------------------------|--------------------------|
--3--3--3--3--3--3--3--3--|--------------------------|
--------------------------|--0--0--0--0--0--0--0--0--|


                                                      
--------------------------|--------------------------|
--------------------------|--------------------------|
--------------------------|--------------------------|
--0--0--0--0--0--0--0--0--|--0--0--0--0--0--0--0--0--|


                                                      
--------------------------|--------------------------|
--------------------------|--------------------------|
--------------------------|--------------------------|
--0--0--0--0--0--0--0--0--|--0--0--0--0--0--0--0--0--|


                                                      
--------------------------|--------------------------|
--------------------------|--------------------------|
--------------------------|--------------------------|
--2--2--2--2--2--2--2--2--|--5--5--5--5--5--5--5--5--|


                                                      
--------------------------|--------------------------|
--------------------------|--------------------------|
--3--3--3--3--3--3--3--3--|--------------------------|
--------------------------|--0--0--0--0--0--0--0--0--|


                                                      
--------------------------|--------------------------|
--------------------------|--------------------------|
--------------------------|--------------------------|
--0--0--0--0--0--0--0--0--|--0--0--0--0--0--0--0--0--|


                                                      
--------------------------|--------------------------|
--------------------------|--------------------------|
--------------------------|--------------------------|
--0--0--0--0--0--0--0--0--|--5--5--5--5--5--5--5--5--|


                                                      
--------------------------|--------------------------|
--------------------------|--------------------------|
--------------------------|--------------------------|
--0--0--0--0--0--0--0--0--|--5--5--5--5--5--5--5--5--|


                                                                             
--------------------------|------------------------|------------------------|
--------------------------|------------------------|------------------------|
--3--3--3--3--3--3--3--3--|------------------------|------------------------|
--------------------------|--0--0--0----0--0--0----|--0--0--0----0--0--0----|


                                                                           
------------------------|------------------------|------------------------|
------------------------|------------------------|------------------------|
--3--3--3----3--3--3----|--3--3--3----3--3--3----|------------------------|
------------------------|------------------------|--0--0--0----0--0--0----|


                                                                           
------------------------|------------------------|------------------------|
------------------------|------------------------|------------------------|
------------------------|--3--3--3----3--3--3----|--3--3--3----3--3--3----|
--0--0--0----0--0--0----|------------------------|------------------------|


                                                                             
-------------------|------------------|------------------|------------------|
-------------------|------------------|------------------|------------------|
-------------------|------------------|------------------|------------------|
--0----------------|------------------|------------------|------------------|


                                                      
--------------------------|--------------------------|
--------------------------|--------------------------|
--------------------------|--------------------------|
--0--0--0--0--0--0--0--0--|--2--2--2--2--2--2--2--2--|


                                                      
--------------------------|--------------------------|
--------------------------|--------------------------|
--------------------------|--3--3--3--3--3--3--3--3--|
--5--5--5--5--5--5--5--5--|--------------------------|


                                                      
--------------------------|--------------------------|
--------------------------|--------------------------|
--------------------------|--------------------------|
--3--3--3--3--3--3--3--3--|--3--3--3--3--3--3--3--3--|


                                                      
--------------------------|--------------------------|
--------------------------|--------------------------|
--------------------------|--------------------------|
--3--3--3--3--3--3--3--3--|--3--3--3--3--3--3--3--3--|


                                                      
--------------------------|--------------------------|
--------------------------|--------------------------|
--1--1--1--1--1--1--1--1--|--------------------------|
--------------------------|--3--3--3--3--3--3--3--3--|


                                                                               
--------------------------|--------------------------|------------------------|
--------------------------|--------------------------|------------------------|
--1--1--1--1--1--1--1--1--|--------------------------|------------------------|
--------------------------|--1--1--1--1--1--1--1--1--|--0--0--0----0--0--0----|


                                                                           
------------------------|------------------------|------------------------|
------------------------|------------------------|------------------------|
------------------------|--3--3--3----3--3--3----|--3--3--3----3--3--3----|
--0--0--0----0--0--0----|------------------------|------------------------|


                                                                           
------------------------|------------------------|------------------------|
------------------------|------------------------|------------------------|
------------------------|------------------------|--3--3--3----3--3--3----|
--0--0--0----0--0--0----|--0--0--0----0--0--0----|------------------------|


                                                                   
------------------------|-------------------|---------------------|
------------------------|--0----------------|---------------------|
--3--3--3----3--3--3----|-------------------|---------------------|
------------------------|-------------------|--0----0----0--------|


                                                                                
-------------------|--------------------|-------------------|------------------|
-------------------|--------------------|-------------------|------------------|
--3----------------|--3----3------------|--3----------------|------------------|
-------------------|--------------------|-------------------|------------------|


                                                                  
------|------|------|------|------|------|-----------------------|
------|------|------|------|------|------|-----------------------|
------|------|------|------|------|------|-----------------------|
------|------|------|------|------|------|--0--------------0-0-0-|

[ Tab from: http://www.guitartabs.cc/tabs/n/nightwish/nemo_btab.html ]
                                                                
-------------------|-----------------------|-------------------|
-------------------|-----------------------|-------------------|
-------------------|-----------------------|-------------------|
--0----------------|--0--------------0-0-0-|--0----------------|


                                                                            
-----------------------|--------------------------|------------------------|
-----------------------|--------------------------|------------------------|
-----------------------|--------------2--3--2-----|------------------------|
--0----0--0--0----0----|--0--0--0--0-----------3--|--0----0--0--0----0--0--|


                                                                              
--------------------------|-----------------------|--------------------------|
--------------------------|-----------------------|--------------------------|
--------------------------|-----------------------|--------------2--3--2-----|
--0--0--0--0--0--0--0--0--|--0----0--0--0----0----|--0--0--0--0-----------3--|


                                                                             
------------------------|------------------------|--------------------------|
------------------------|------------------------|--------------------------|
------------------------|-------------------3----|--------------------------|
--0----0--0--0----0--0--|--0--0--0--0--0---------|--0--0--0--0--0--0--0--0--|


                                                      
--------------------------|--------------------------|
--------------------------|--------------------------|
--------------------------|--------------------------|
--0--0--0--0--0--0--0--0--|--3--3--3--3--3--3--3--3--|


                                                      
--------------------------|--------------------------|
--------------------------|--------------------------|
--3--3--3--3--3--3--3--3--|--------------------------|
--------------------------|--3--3--3--3--3--3--3--3--|


                                                      
--------------------------|--------------------------|
--------------------------|--------------------------|
--------------------------|--------------------------|
--3--3--3--3--3--3--3--3--|--3--3--3--3--3--3--3--3--|


                                                      
--------------------------|--------------------------|
--------------------------|--------------------------|
--------------------------|--------------------------|
--3--3--3--3--3--3--3--3--|--3--3--3--3--3--3--3--3--|


                                                      
--------------------------|--------------------------|
--------------------------|--------------------------|
--------------------------|--------------------------|
--3--3--3--3--3--3--3--3--|--3--3--3--3--3--3--3--3--|


                                                      
--------------------------|--------------------------|
--------------------------|--------------------------|
--------------------------|--------------------------|
--3--3--3--3--3--3--3--3--|--3--3--3--3--3--3--3--3--|


                                                                           
--------------------------|--------------------------|--------------------|
--------------------------|--------------------------|--------------------|
--------------------------|--------------------------|--4--------6--------|
--3--3--3--3--3--3--3--3--|--3--3--3--3--3--3--3--3--|--------------------|


                                                                              
------|------|------|------|------------------------|------------------------|
------|------|------|------|------------------------|------------------------|
------|------|------|------|------------------------|------------------------|
------|------|------|------|--3--3--3----3--3--3----|--3--3--3----3--3--3----|


                                                                           
------------------------|------------------------|------------------------|
------------------------|------------------------|------------------------|
--6--6--6----6--6--6----|--6--6--6----6--6--6----|------------------------|
------------------------|------------------------|--3--3--3----3--3--3----|


                                                                           
------------------------|------------------------|------------------------|
------------------------|------------------------|------------------------|
------------------------|------------------------|--6--6--6----6--6--6----|
--3--3--3----3--3--3----|--6--6--6----6--6--6----|------------------------|


                                                                           
------------------------|------------------------|------------------------|
------------------------|------------------------|------------------------|
------------------------|------------------------|--6--6--6----6--6--6----|
--3--3--3----3--3--3----|--3--3--3----3--3--3----|------------------------|


                                                                           
------------------------|------------------------|------------------------|
------------------------|------------------------|------------------------|
--6--6--6----6--6--6----|------------------------|------------------------|
------------------------|--3--3--3----3--3--3----|--3--3--3----3--3--3----|


                                                                           
------------------------|------------------------|------------------------|
------------------------|------------------------|------------------------|
------------------------|--6--6--6----6--6--6----|------------------------|
--6--6--6----6--6--6----|------------------------|--3--3--3----3--3--3----|


                                                                           
------------------------|------------------------|------------------------|
------------------------|------------------------|------------------------|
------------------------|--6--6--6----6--6--6----|--6--6--6----6--6--6----|
--3--3--3----3--3--3----|------------------------|------------------------|


                                                                           
------------------------|------------------------|------------------------|
------------------------|------------------------|------------------------|
------------------------|------------------------|------------------------|
--3--3--3----3--3--3----|--3--3--3----3--3--3----|--6--6--6----6--6--6----|


                                                                           
------------------------|------------------------|------------------------|
------------------------|------------------------|------------------------|
--6--6--6----6--6--6----|------------------------|------------------------|
------------------------|--3--3--3----3--3--3----|--3--3--3----3--3--3----|


                                                                           
------------------------|------------------------|------------------------|
------------------------|------------------------|------------------------|
--6--6--6----6--6--6----|--6--6--6----6--6--6----|------------------------|
------------------------|------------------------|--3--3--3----3--3--3----|


                                                                           
------------------------|------------------------|------------------------|
------------------------|------------------------|------------------------|
------------------------|------------------------|--6--6--6----6--6--6----|
--3--3--3----3--3--3----|--6--6--6----6--6--6----|------------------------|


                                                                           
------------------------|------------------------|------------------------|
------------------------|------------------------|------------------------|
------------------------|------------------------|--6--6--6----6--6--6----|
--3--3--3----3--3--3----|--3--3--3----3--3--3----|------------------------|


                                                                        
------------------------|------------------------|------|------|------||
------------------------|------------------------|------|------|------||
--6--6--6----6--6--6----|------------------------|------|------|------||
------------------------|--3--3--3----3--3--3----|------|------|------||
Comments