Nightwish - Higher Than Hope Chords & Tabs

 

Higher Than Hope Chords & Tabs

Nightwish Chords & Tabs

Version: 1 Type: Tab 0 ratings
1 star 2 stars 3 stars 4 stars 5 stars
comments

Higher Than Hope Tab

   
Band:             Nightwish
Song:             Higher Than Hope
Album:            Once

Transcribed by:   Hebert Bravo and Marco Saldierna
E-mail:           wizardhp_7@hotmail.com

Tune:
Electric: D
Acustic:  E

Some parts are hard to hear. Any way, this tab sounds good.
For corrections, suggestions, ... please mail me. I hope that you like.
Thanks to Marco for help me.

INTRO (00:00)

Guitar I
3|---------------------------------------------6----8---8-8-6------|
3|----------------------------------------------------9-9-------8--|
3|-------------8---------------6-8-------------8-8-10-------8-8----|
3|-5---5-7-8-----5-5---5-7-8-------5---5-7-8-----------------------|
3|---5-------5-------6-------6-------5-------5---------------------|
3|-----------------------------------------------------------------|

Guitar II
 |-----------------------------------------------------------------|
 |-------------8---------------6-----------------------------------|
 |---------8---------------8---------------8---7----8--------------|
 |---------5---5-----------6---8-----------5----------------5------|
 |-3---------------3---------------3-------------------------------|
 |-----------------------------------------------------------------|

Guitar I
3 -------------3------3----------4/6--------8---7--|
3 -6---3---4------3-----3-4-3---------8--6------8--|
3 -7-7---7-5-5----3-3---------5—-6/8--8--8--10--7--|
3 ----------------------------------------------5--|
3 -------------------------------------------------|
3 -------------------------------------------------|

Guitar II
 |-------------------------------------------------|
 |-------------------------------------------------|
 |-------------------------------------------------|
 |-6-------5------3--------------5/8-----6------5--|
 |------------------------6-5-3--------------------|
 |-------------------------------------------------|

VERSE 1 (x2) (00:25)

Guitar I
3|----3--6--6--------3--6--6--------3------3--3--3-----|
3|----4--6---6p3-----4--6---6p3-----4p3----4--6--4-----|
3|----5--3------3----5--3------3----5--5---5--3--5-----|
3|----5--3-------5---5--3-------5---5---5--5--5--5-----|
3|-3--3--5-----------3--5-----------3------3--5--3-----|
3|----3--6--------6--3--6--------4--3------3--3--3-----|

Guitar II (00:25)

 |----------------------------------------------------------|
 |-88888...----------66666...--------------8..6..888...-----|
 |----------------------------------888...------------------|
 |----------------------------------------------------------|
 |----------------------------------------------------------|
 |----------------------------------------------------------|

VERSE 2

Guitar I (00:58)
3|--8-8--8--666--6—-333--3—-333--3333—8-8-—8—-666--6--33—-33333-33--|
3|--9-9--9--666--6—-366--4—-333--4444—9-9-—9--666--6--33--33333-44--|
3|-1010-10--777--7—-555--5—-555--55551010-10--777--7—-33--33333-55--|
3|-1010-10--888--8—-555--5—-555--55551010-10--888--8--55--55555-55--|
3|--8-8--8--888--8—-333--3—-333--3333-8-8—-8—-888--8--55--55555-33--|
3|--8-8--8--666--6—-333--3—-333--3333-8-8—-8--666--6--33--33333-33--|

Guitar II (00:58)

 |-------------------------------------------------------------------|
 |-------------------------------------------------------------------|
 |-------------------------------------------------------------------|
 |--999...---66666...88888...---------999...---888...--66666...------|
 |-------------------------------------------------------------------|
 |-------------------------------------------------------------------|

Electric Guitar (01:14)
[ Tab from: http://www.guitartabs.cc/tabs/n/nightwish/higher_than_hope_tab.html ]
|------------------------------------------------------------------------|
|------------------------------------------------------------------------|
|------------------------------------------------------------------------|
|-5--------5-------------5--------5---------------5--------5-------------|
|-5-5-7-8--5-5-7-8/10-10-5-5-7-8--5-5-7-8/10-8p7--5-5-7-8--5-5-7-8/10-10-|
|-5--------5-------------5--------5-------------8-5--------5-------------|

 --------------------------|
 --------------------------|
 --------------------------|
 ---------------/5-3-2—-5--|
 -3-0-1-3---3-0---------5--|
 ---------1-------------5--|

Guitar I (01:32)

3|-3—10h11-10--6------|
3|-4-------------6/8--|
3|-5------------------|
3|-5------------------|
3|--------------------|
3|--------------------|

Guitar II     Repeat VERSE 1 (x1) (01:35)
Guitars I, II Repeat VERSE 1 (x1) (01:51)

Electric Guitar  (02:07)
|----------------------------------------|
|----------------------------------------|
|------5---------------------5--55--5-5--|
|-5----5----5------5----3----5—-55--5-5--|
|-5----3----5------5----3----3--33--3-3--|
|-3---------5------3----1----------------|

(x2)
|------------------------------------------------------------------------|
|------------------------------------------------------------------------|
|------------------------------------------------------------------------|
|-5--------5-------------5--------5---------------5--------5-------------|
|-5-5-7-8--5-5-7-8/10-10-5-5-7-8--5-5-7-8/10-8p7--5-5-7-8--5-5-7-8/10-10-|
|-5--------5-------------5--------5-------------8-5--------5-------------|

 -----------------------|
 -----------------------|
 -----------------------|
 ---------------/5-3-2--|
 -3-0-1-3---3-0---------|
 ---------1-------------|

(x4) (03:10)
     1st, 2nd, 3rd               4th
|--------------------||---------------------------------------------------|
|--------------------||---------------------------------------------------|
|--------------------||---------------------55-55-55-55-5-3-5-55-55-55-55-|
|---55-55-55-55-5-5\-||-55-55-55-55-3-5-7-8-55-55-55-55-5-3-5-55-55-55-55-|
|-\-55-55-55-55-5-5\-||-55-55-55-55-3-5-7-8-33-33-33-33-3-1-3-33-33-33-33-|
|-\-33-33-33-33-3-3\-||-33-33-33-33-1-3-5-6-------------------------------|
    .. .. .. .. .       .. .. .. ..         .. .. .. ..       .. .. .. ..

|------------------------------------------------------------------|
|------------------------------------------------------------------|
|-5----------------------------------------------------------------|
|-5-8-7-55-55-55-55-5\3/5--55-55-55-55-5\3/5----------2-3-0-3-2-5--|
|-3-8-7-55-55-55-55-5\3/5--55-55-55-55-5\3/5----1-0---------3-2-5--|
|---6-5-33-33-33-33-3\1/3--33-33-33-33-3\1/3--3-----3-------1-0-5--|
        .. .. .. ..        .. .. .. ..

OUTRO (04:05)
|----------------------------------------------------------------------|
|----------------------------------------------------------------------|
|---------------------------------------------------------5------------|
|-0----------0-----------0--------0---------3p2p0-0-------5------------|
|-0----------0-----------0--------0---------------0-------3------------|
|-0-0-1-2*~--0-0-1-2/5-5-0-0-1-2--0-0-1-2/5-------0-0-1-2---0-1-2/5-5--|

 -----------------------|
 -----------------------|
 -----------------------|
 -----------------------|  x2
 -5-2-3-5----5-2--------|
 ---------3------5-3-2--|
                                                        2nd time
|------------------------------------------------------||-----|
|------------------------------------------------------||-----|
|------------------------------------------------------||-----|
|-000------000------000-2--000-5—-000-2------7--5---4--||--2--|  x2
|-000------000-7*~--000-2--000-5--000-2--333-7--5---4--||--2--|
|-000-7*~--000------000-0--000-5--000-0------5--3---2--||--0--|
  ...      ...      ...    ...    ...    ...
END ‘ENJOY!
Comments