Nightwish - Gethsemane Chords & Tabs

 

Gethsemane Chords & Tabs

Nightwish Chords & Tabs

Version: 1 Type: Tab 0 ratings
1 star 2 stars 3 stars 4 stars 5 stars
comments

Gethsemane Tab

/---------------------------------------------------------------------------
/ The following is the author's own interpretation of the song, to be used -
/ for studying or private use only, removal of any part of this ten line   -
/ header is illegal!!!  Removal of the transcribers name or anything       -
/ relevant to the transcriber is also illegal, as so is the removal of the -
/ place inwhich the tab was downloaded. Publishing as well as printing of  -
/ the tab is illegal without permission of the transcriber and copyright   -
/ owner of the song. Failure to apply to these laws result will in legal   -
/ action from the appropriate parties.                                     -
/---------------------------------------------------------------------------

    Nightwish - Gethsemane
    Transcribed by Paul K. Pekkarinen (paulkp@hotmail.com)


|-----------------------12------------------------------------------------|
|----------------8-12-8----------12-10-12-8-12-7-12---12-10-12-8-12-7-12--|
|---------9----9---------------9--------------------9---------------------|
|---5-9-5-----------------------------------------------------------------|
|-7-----------------------------------------------------------------------|
|-------------------------------------------------------------------------|


|----------------------------------|--------------------------------------|
|---12-10-12-8-12-7-12-------------|----------------------------13--------|
|-9--------------------9---8---9~--|---------------------9-12-9-----------|
|----------------------------------|-------------10---10------------------|
|----------------------------------|------7-10-7--------------------------|
|----------------------------------|-8--8---------------------------------|


|-------------------------------------------------------------------------|
|-------------------------------------------------------------------------|
|---5--4-2-4-2----------2---4-2------4--------------4-----4--2------------|
|--------------5|2--4-5---5-----5-4--4--------------4-----4--2--5--4--2---|
|-3----------------------------------2----2-.-.-.-2-2-----2--0--5--4--2---|
|---------------------------------------------------------------3--2--0---|

    "Told no bell for.."  "But let this cup of suffering pass from me"

|-------------------------------------------------------------------------|
|-------------------------------------------------------------------------|
|--------------------|-4-2-------2-2-2--------5---------------------------|
|-2--2-2--2-2-2--2-2-|-4-2-------2-2-2--------5---------------------------|
|-2--2-2--2-2-2--2-2-|-2-0--0-0--0-0-0--0-0---3------5s--3s--5s--7~--7----|
|-0--0-0--0-0-0--0-0-|-----------------------------------------------0----|

    "..done..."                               "The Lord weeps for me"

|-------------------------------------------------------------------------|
|-------------------------------------------------------------------------|
|-2-----------------------------5----7----5-------------7--2--------------|
|-2-----------------------------5----7----5-------------7--2--------------|
|-0--0---0---0-0-0---0---0-0----3----5----3-------------5--0--------------|
|-------------------------------------------------------------------------|

    "But my tears fall for you"

|-------------------------------------------------------------------------|
|-------------------------------------------------------------------------|
|--7------------------------------------------7---------------------------|
|--7-------------7----------------------------7---------------------------|
|--5-------------7--------------7-7-7-.-.-.---5---------------------------|
|----------------5--------------------------------------------------------|

    (Before flute solo)

|-------------------------------------------------------------------------|
|-------------------------------------------------------------------------|
|-------------------------------------------------------------------------|
|---------------------------------4s3-------------------------------------|
|-4---4-4---4---4-4---4---4-4-4-4-----4---4-4---4---4-4|4h5p4---4---------|
|-------------------------------------------------------------7---7-5-4---|

[ Tab from: http://www.guitartabs.cc/tabs/n/nightwish/gethsemane_tab.html ]
|------------------------------------------------------------------------------------|
|------------------------------------------------------------------------------------|
|------------------------------------------------------------------------------------|
|---------------------------------4s3-------------------5-4--|------------------7s<--|
|-4---4-4---4---4-4---4---4-4-4-4-------6---6----7--7-7-3-2--|--6---6----5--5-5-5s<--|
|---------------------------------------4---4----5--5-5------|--4---4----3--3-3------|

    (Flute solo background [play 2x])
    7x.........                3x......

|-------------------------------------------------------------------------|
|-------------------------------------------------------------------------|
|---------|--------|------|--------|-------4-----4--5---------------------|
|-6-------|-6-<-4--|-6----|-6------|-2-----4-----4--5---------------------|
|-4--4-4--|-4-<-2--|-4----|-4--4-4-|-2-----2-----2--3---------------------|
|---------|--------|------|--------|-0------------------------------------|

    (==Violins & Tarja==)
                                             "I knew you never before"

|------------------------------------------------------------------------------------|
|------------------------------------------------------------------------------------|
|---------------------------------7--7---5------5------5------5------|----s7---s9----|
|-2---------2---------2--------|--7--7---5------5------5------5------|x2--s7---s9----|
|-2---------2---------2--------|--5--5---3--3-3-3--3-3-3--3-3-3--3-3-|----s5---s7----|
|-0---------0-0-.-.-.-0-0-.-.--|-----------------------------------------------------|

                      "But the love.."

|-------------------------------------------------------------------------|
|-------------------------------------------------------------------------|
|-5-4-----------------------------9---7s9-7s9----5-4----------------------|
|-----7-5-4-------2----4~--5~-----9---7s9-7s9--------7-5-4----------------|
|-----------7-5-------------------7---5s7-5s7-----------------7-----------|
|-------------------------------------------------------------------------|

    "Have made you mine, 'till all my years are gone"

|-------------------------------------------------------------------------|
|-------------------------------------------------------------------------|
|--7---------------------------------------------7--------9s<-------------|
|--7-------------7-------------------------------7--------9s<-------------|
|--5-------------7--------------7-7-7-.-.-.------5--------7s<-------------|
|----------------5--------------------------------------------------------|

    (=="Without you / The poetry within me is dead"==)


|-------------------------------------------------------------------------|
|-------------------------------------------------------------------------|
|--7----------------5-----------------7---------2--------2----------------|
|--7------2---------5-----------------7---------2--------2----------------|
|--5------2---------3-.-.-.---0--2-3--5-.-.-.---0--------0----------------|
|---------0-.-.-.---------------------------------------------------------|


|-------------------------------------------------------------------------|
|-------------------------------------------------------------------------|
|------------------------2--4--5----2---4---5---4---2--2---4---2----------|
|-2--------2~---4~---5~-------------------------------------------4-------|
|-2---------------------------------------------------------------5-------|
|-0-.-.-.-----------------------------------------------------------------|


|-------------------------------------------------------------------------|
|-------------------------------------------------------------------------|
|-------------------------------------------------------------------------|
|-5----------------7------------------------------------------------------|
|-5----------------7------------------------------------------------------|
|-3----------------5------------------------------------------------------|

    (==Guitar solo==)

    A beta version of the end theme.. (it has two guitars, this is one)

|-----------------15---------15----15--18--22--18--15-----------15--------|
|--------11-15-11---------15------------------------------18--------------|
|-12--12---------------15-------------------------------------------------|
|-------------------------------------------------------------------------|
|-------------------------------------------------------------------------|
|-------------------------------------------------------------------------|
Comments