Nightmares On Wax - Les Nuits Chords & Tabs

 

Les Nuits Chords & Tabs

Nightmares On Wax Chords & Tabs

Version: 1 Type: Bass Tab 0 ratings
1 star 2 stars 3 stars 4 stars 5 stars
comments

Les Nuits Bass Tab

Artist: Nightmares On Wax (website - www.nightmaresonwax.co.uk) (GB)
Song Title: Les Nuits
Album: Carboot Soul (1999)
Song Duration: 05:24 min
Tabbed by: Vuk Krajacic (krajac@eunet.yu)

Instructions:

(     ) - Song time elapsed 

p - pause


Into main riff (01:04)

G|-------------------------------|
D|-------------------------------|
A|--3--3----0-1----1-------------|
E|-------------------4-4-44-1-3--| 


Main riff (01:09)

G|-----------------------------------|
D|-----------------------------------|
A|-----3-3--3--0-1----1--------------|
E|--33------------------4-4--4--1-3--| 

[ Tab from: http://www.guitartabs.cc/tabs/n/nightmares_on_wax/les_nuits_btab.html ]
G|-----------------------------------|
D|-----------------------------------|
A|-----3-3--3--0-1----1--------------|
E|--33------------------4-4--4--1-3--| 


Mid section (03:26)

G|-----------|
D|-----------|
A|-----3-3-p-|
E|--33-------|


Main riff (03:31)

G|-----------------------------------|
D|-----------------------------------|
A|-----3-3--3--0-1----1--------------|
E|--33------------------4-4--4--1-3--| 


G|-----------------------------------|
D|-----------------------------------|
A|-----3-3--3--0-1----1--------------|
E|--33------------------4-4--4--1-3--| 



Repeat main riff until (05:12) min. 






Please send your comments to krajac@eunet.yu
Comments