Nightmares On Wax - Cruise (dont Stop) Chords & Tabs

 

Cruise (dont Stop) Chords & Tabs

Nightmares On Wax Chords & Tabs

Version: 1 Type: Bass Tab 1 rating
1 star 2 stars 3 stars 4 stars 5 stars
comments

Cruise (dont Stop) Bass Tab

Nightmares on Wax - Cruise (Dont Stop)

Album - Smokers Delight

Key: s - Slide

Riff 1

G----------------------1-3-|
D---------1S3-11--3--4-----| 
A-1--3--4------------------|
E--------------------------|

Riff 2
[ Tab from: http://www.guitartabs.cc/tabs/n/nightmares_on_wax/cruise_dont_stop_btab.html ]
G-------------------------|
D-------------------------|
A-1--3--4--5--6-6-44-33-2-|
E-------------------------|

The whole tune consists of playing riff1 three times
followed by riff2 once and repeating that through out.

Listen to the tune for the rythem.

Hope this is up to standard and enjoy.

Tabbed by Rob M. Stokes
Comments