Nightmare Of You - Thumbelina Chords & Tabs

 

Thumbelina Chords & Tabs

Nightmare Of You Chords & Tabs

Version: 1 Type: Tab

Thumbelina Tab

   
Title: Thumbelina
Artist: Nightmare of You
Album: Nightmare of You

Tuning: Standard (E-a-d-g-b-e)
Capo: First Fret

The tabs and chords are in reference to capo on the first fret.  A Capo on the first
fret makes life easier for this song.

The words aren't in time with the tab. They're simply a reference as to where you are.


INTRO AND VERSES

Fmaj7    C        C        g       Ammaj7  Am
e-0------0-0-0----0-0-0----3---------0------0--------|
b-1------1-1-1----1-1-1----0---------1------1--------|
g-2------0-0-0----0-0-0----0---------1------2--------|
d-3------2-2-2----2-2-2----0---------2------2--------|
a--------3-2-0----3-2-0----2---------0------0--------|
E--------------------------3-------------------------|


  A#   C
e--1---3-------------------------------------------|
b--3---5-------------------------------------------|
g--3---5-------------------------------------------|
d--3---5-------------------------------------------|
a--1---3-------------------------------------------|
E--------------------------------------------------|

           Hey Dainty girl...

Repeat Intro as needed.

   Am     C    Am
e---5-----3-----5-----------------------------------|
b---5-----5-----5-----------------------------------|
g---5-----5-----5-----------------------------------|
d---7-----5-----7-----------------------------------|
a---------------------------------------------------|
E---------------------------------------------------|
     Sexual deviants...


***************************************************

PRE-CHORUS

   F    Fm
e--1----1-------------------------------------------|
b--1----1-------------------------------------------|
g--2----1-------------------------------------------|
d--3----3-------------------------------------------|
a--3----3-------------------------------------------|
E--1----1-------------------------------------------|
  Greater and he loves you...

***************************************************

CHORUS

   C    g    Am  Em  F
e--0----3----0---0---1-----------------------------|
b--1----0----1---0---1-----------------------------|
g--0----0----2---0---2-----------------------------|
d--2----0----2---2---3-----------------------------|
a--3----2----0---2---3-----------------------------|
E-------3--------0---1-----------------------------|
  My Thumbelina...


   Fm   g
e--0----3------------------------------------------|
b--0----3------------------------------------------|
g--0----0------------------------------------------|
d--2----0------------------------------------------|
a--2----2------------------------------------------|
E-------3------------------------------------------|
  And I have traveled shore to shore....

[ Tab from: http://www.guitartabs.cc/tabs/n/nightmare_of_you/thumbelina_tab.html ]
   C    g    Am
e--0----3----0-------------------------------------|
b--1----0----1-------------------------------------|
g--0----0----2-------------------------------------|
d--2----0----2-------------------------------------|
a--3----2----0-------------------------------------|
E-------3------------------------------------------|
  Your almost perfect body's got me quivering...

   D7         C
e--------2-----------------------------------------|
b------1------------1------------------------------|
g----2------------0--------------------------------|
d--0------------2----------------------------------|
a-------------3------------------------------------|
E--------------------------------------------------|


***************************************************

BRIDGE

  Fm                                     A#m
e-------------------------------------------------------|
b-------------------------------------------------------|
g--9--9--9--9--9--9--9--9--9p7----------------7b(9)-----|
d--------------------------------10-7----7-10-----------|
a-------------------------------------------------------|
E-------------------------------------------------------|
  But ‘twas a little on the hill side....


e--------------------------------------------------|
b--------------------------------------------------|
g-7-7p5----5---------------------------------------|
d--------7-----------------------------------------|
a--------------------------------------------------|
E--------------------------------------------------|


***************************************************

SOLO INTERLUDE . . . thingy

  Em         Am
e----------------------8-------7-----------------------|
b-10-------------10------10------10----10----10---10---|
g----10-10---9b-----9-------9-------9-----9-----7------|
d------------------------------------------------------|
a------------------------------------------------------|
E------------------------------------------------------|
  I’m tired of seeing between your eyes...


  Fm (Hold it out a bit)
e-1-------------------------------------------------|
b-1-------------------------------------------------|
g-1-------------------------------------------------|
d-3-------------------------------------------------|
a-3-------------------------------------------------|
E-1-------------------------------------------------|
 You fancied him....


  F    G#m
e-1----4--3--1--0----------------------------------|
b-1----4-------------------------------------------|
g-2----4-------------------------------------------|
d-3----6-------------------------------------------|
a-3----6-------------------------------------------|
E-1----4-------------------------------------------|
  Saudistic sodomist who gave you...

That's all there is too it.  The solo thing may be off, so feel free to edit it if
necessary.  Not very hard song...but the lyrics are disturbing to say the least.
I feel this song could have been great...had they put different lyrics in the song.
Oh well...

Please rate and comment.

Questions, comments, death-threats?: vanceboy@hotmail.com