Nightmare Of You - My Name Is Trouble Chords & Tabs

 

My Name Is Trouble Chords & Tabs

Nightmare Of You Chords & Tabs

Version: 1 Type: Tab

My Name Is Trouble Tab

   
Song: My Name Is Trouble
Album: Nightmare Of You
Band: Nightmare Of You
Tabber: Calum Neil (afirock74@hotmail.com)
Tuning: Standard

Capo on 2

Intro:
e|-----8---8---|
B|---12--12----|
G|-9-----------|
D|-------------|
A|-------------| 
E|-------------|

Bass Intro:
G|----------------------------------------------------------|
D|--------------------------------------------------55-44---|
A|--22-22-22-22-22-22--44--77--55-55-55-55--44-44--3--2-----| 
E|-0--0--0--0--0--0---2---5---3--3--3--3---2--2-------------|

Chorus:
G Am C
G E D C
F#
[ Tab from: http://www.guitartabs.cc/tabs/n/nightmare_of_you/my_name_is_trouble_tab.html ]
Chorus Riff:
e|---------------10-8-7-----10-8-7---------------------------------------------------|
B|----8----5------------8----------8----8----8-7-5---7-8-----------------------------|
G|-7/9----7-5---9----------9---------7/9----7-----7------9--9-7---------9-7----------|
D|--------------------------------------------------------------10-9--------10-9-----|
A|-------------------------------------------------------------------10---------10---| 
E|-----------------------------------------------------------------------------------|

Bridge Riff:
e|--------------------------------------------|
B|--------------------------------------------|
G|------------4----4--------------------------|
D|--5----5---------------5-----5---5-5-7-5----|
A|-3--3-3--5-5--5-5--5--7--7-7--7-7-7-----7---| 
E|--------------------------------------------|

Bridge:
C D E