Nightfall - The Secret Admirer Chords & Tabs

 

The Secret Admirer Chords & Tabs

Nightfall Chords & Tabs

Version: 1 Type: Tab 0 ratings
1 star 2 stars 3 stars 4 stars 5 stars
comments

The Secret Admirer Tab

   
                        "The Secret Admirer" by Nightfall 
                           from the album "Lesbian Show"

Tab by Michal Taberski & Mikolaj Lewandowski (black_ml@friko7.onet.pl)
This is my interpretation of this song. It's originaly played in D tuning
but I think my version sounds better. If you wanna play original solo just
play it two frets lower.

Tablature Explanation :
h - hammer-on
p - pull-off
~ - vibrato
^ - bend
P.M. - palm mute
(A.H) - artificial harmonic

Intro (2 guitars)
E|-----------------------------------|
B|-----------------------------------|
G|-2-2---3-3-------------------------|
D|-0-0---0-0----------5-5-5--3-3-3---|
A|-------------3-3----3-3-3--1-1-1---|
E|-------------1-1-------------------|

Verse
E|---------------------------------------------------------------------|
B|---------------------------------------------------------------------|
G|-2-----2-----2----2-----2-----2----3-----3-----3----3-----3-----3----|
D|---0-0---0-0---0----0-0---0-0---0----0-0---0-0---0----0-0---0-0---0--|
A|---------------------------------------------------------------------|
E|---------------------------------------------------------------------|
P.M. - -   - -   -    - -   - -   -    - -   - -   -    - -   - -   -

E|---------------------------------------------------------------------|
B|---------------------------------------------------------------------|
G|-2-----3-----5----3-----2-----3--------------------------------------|
D|---3-3---3-3---3----3-3---3-3---3--2-----3-----5----3-----2-----3----|
A|-------------------------------------3-3---3-3---3----1-1---1-1---1--|
E|---------------------------------------------------------------------|
P.M. - -   - -   -    - -   - -   -    - -   - -   -    - -   - -   -

Fill A                          Fill B
E|-----------------------------|--------------------------------|
B|-----------------------------|--------------------------------|
G|------------------2-0--------|--------------------------------|
D|-0-2-3-2-3-2----3-----3------|-2-2-2-2-2-2-2-2-2-2-2-2-2-2-2--|
A|-------------1----------3-1--|-0-0-0-0-0-0-0-0-0-0-0-0-0-0-0--|
E|-----------------------------|--------------------------------|
                               P.M.- - - - - - - - - - - - - -

Chorus                            Fill C1
E|-------------------------------|-------------|
B|-------------------------------|-------------|
G|-------------------------------|-------------|
D|-4-----4---4--2-------2---2----|---------2---|
A|-2-2-2---2----0-0-0-0---0---0--|-3---5---0---|
E|-------------------------------|-1---3-------|
P.M. - - - - -    - - -   -   -

Fill D                                                 Fill C2
E|----------------------------------------------------|------------|
B|----------------------------------------------------|------------|
G|----------------------------------------------------|-----2~~~---|
D|-4------4-2--4----4------4-2--4-5--4------4-2--4----|-3-5--------|
A|-2--4-5--------5--2--4-5-----------2--4-5--------5--|------------|
E|----------------------------------------------------|------------|
P.M.  - -              - -              - -
[ Tab from: http://www.guitartabs.cc/tabs/n/nightfall/the_secret_admirer_tab.html ]
Solo
E|-21h22p21h22p21h22p21h22p21h22p21h22p21h22p21h22--------------------|
B|--------------------------------------------------------------------|
G|-------------------------------------------------14-12--------------|
D|-------------------------------------------------------15-14-15-14--|
A|--------------------------------------------------------------------|
E|--------------------------------------------------------------------|

E|---------------------------------------------------------------------|
B|---------------------------------------------------------------------|
G|-----------------------------------------12--------------------------|
D|-12h14p12----14-14-12----12~~~--14-15-14----15-14-15-14h15p14-12-14--|
A|----------15----------15---------------------------------------------|
E|---------------------------------------------------------------------|

E|---------------------------------------------------------------|
B|--------------------------------------------------------15~~~--|
G|----------------------------15-14-14-16-14-14-17-14-14---------|
D|-15-14-14-16-14-14-17-14-14------------------------------------|
A|---------------------------------------------------------------|
E|---------------------------------------------------------------|
P.M.- -- -- -- -- -- -- -- -- -- -- -- -- -- -- -- -- --

E|----------------17----------------17----------------17--18-17-15--|
B|-20-18-15-15-20----20-18-15-15-20----20-18-15-15-20---------------|
G|------------------------------------------------------------------|
D|------------------------------------------------------------------|
A|------------------------------------------------------------------|
E|------------------------------------------------------------------|

E|-17-15----17-15h17p15----------------------------------------------|
B|-------18-------------18-17^-15----15~~~---------------------------|
G|--------------------------------17--------9-10-9----------12(A.H)^-|
D|-------------------------------------------------12-10-12----------|
A|-------------------------------------------------------------------|
E|-------------------------------------------------------------------|

E|---------------------------------------------------------------|
B|---------------------------------------------------------------|
G|-12-10-9-9h10p9h10p9------9---------------------------12(A.H)--|
D|-----------------------12---12-10-9---12(A.H)-14(A.H)----------|
A|---------------------------------------------------------------|
E|---------------------------------------------------------------|

Outro
Guitar 1        Guitar 2
E|-------------|----------------|
B|-------------|----------------|
G|-------------|----------------|
D|-------------|-5--3--5--2~~~--|
A|-5--3--5--2--|----------------|
E|-3--1--3--0--|----------------|

Song Structure :
Intro x 2
Verse x 2
Verse + Fill A x 2
Fill B
Chorus + Fill D x 3 
Fill C1 + Fill C2    
Chorus + Fill D x 3 
Fill C1 + Fill C2    
Verse x 2
Verse + Fill A x 2
Fill B
Chorus + Fill D x 3 
Fill C1 + Fill C2    
Chorus + Fill D x 3 
Fill C1 + Fill C2    
Chorus + Fill D x 3 
Fill C1 + Fill C2    
Chorus + Fill D x 3 
Fill C1 + Fill C2    
Verse x 2 + solo
Fill B
Chorus + Fill D x 3 
Fill C1 + Fill C2    
Chorus + Fill D x 3 
Fill C1 + Fill C2    
Chorus + Fill D x 3 
Fill C1 + Fill C2    
Chorus + Fill D x 3 
Fill C1 + Fill C2 x 3   
Outro
Comments