Night Shift - Please Take Me Home Chords & Tabs

 

Please Take Me Home Chords & Tabs

Night Shift Chords & Tabs

Version: 1 Type: Tab 0 ratings
1 star 2 stars 3 stars 4 stars 5 stars
comments

Please Take Me Home Tab

 -----------
 NIGHT SHIFT
 -----------
www.nightshift.com
i love the intro in this.
awsome song.

Dropped "D" tuning.
Enjoy. 

Intro(clean, soft.)
|---0-00-333-222-000-33--22-000-333-222-00-33-222-|
|---3------------3---3---33-3-------3---3--3--33--|
|--2---------------------22-0--------------0--00--|
|-0-------------------------------------------00--|
|-------------------------------------------------|
|-------------------------------------------------|

continued....
|--------------|--------3--3--3-|
|--------------|----2----2--2---|
|----0-0--0--0-|--2---2---2--2-2|
|--2--2-2--2---|-2-2-2-2--------|
|-3-3----3-----|0~~~~~~~--------|
|--------------|----------------|

Verse(distortion, Palm muted)
|-----------------------------------------|
|-----------------------------------------|
|-2222-0000-2222-0000-2222-0000-2-0-2--22-|
|-2222-2222-2222-2222-2222-2222-2-2-2--22-|
|-0000-2222-0000-2222-0000-2222-0-2-0--00-|
|-----------------------------------------|
[ Tab from: http://www.guitartabs.cc/tabs/n/night_shift/please_take_me_home_tab.html ]
Chorus(distortion, but not too heavy)
|00033322220033220003332222003322------------------0000000033333333-|
|33333333333333333333333333333333-3333333333333333-2222222222222222-|
|22222222222222220000000000000000-0000000000000000-2222222222222222-|
|---------------------------------2222222222220000-2222222200000000-|
|---------------------------------3333333333333333------------------|
|-------------------------------------------------------------------|

Bridge(distortion)                                      (start building up)
|0003332222003322-0003332222003322------------------0---------------|
|3----------------3----------------3333333333333333-222222222222222-|
|2----------------0----------------0----------------2---------------|
|----------------------------------2----------------2---------------|
|----------------------------------3----------------0---------------|
|-------------------------------------------------------------------|

Outro(softer, very quiet)
|---32---0--------|
|--3--3---310~~~~-|
|-2----20---------|
|0----------------|
|-----------------|
|-----------------|

Order
-----
intro(x2)
verse(x3)
chorus
verse(x3)
chorus(do the "D" chords over 4x, then move to C and A chords once)
Bridge
Chorus(same as second chorus)
Outro

Guitar_Guy_182@hotmail.com
Comments