Night Shift - Cry Chords & Tabs

 

Cry Chords & Tabs

Night Shift Chords & Tabs

Version: 1 Type: Tab 0 ratings
1 star 2 stars 3 stars 4 stars 5 stars
comments

Cry Tab

   
-----------
Night Shift
-----------
Cry
http://www.freewebs.com/the_night_shift

Intro (G1)
 E         G          A  (the 4th time dont play A)
|---------|--------3-|---------0-----|    |-----|
|---------|-----3----|-----2---------|    |-9---|
|-----0---|------0--0|---2--2-2-2----| x4 |-11^-|
|---2---2-|--0----0--|--2-2--2---2-2-|    |-----|
|--2-2-2-2|-2--------|-0----------0-0|    |-----|
|-0-------|3---------|---------------|    |-----|

Intro (G2) - Second Guitar starts second time through the first part above.
 E         G          A
|---------|----------|---------------|
|---------|----------|---------------|
|---------|----------|-2~~~~~~~~~~~--|
|-2~~~~---|-0~~~~~---|-2-------------|
|-2-------|-2--------|-0-------------|
|-0-------|-3--------|---------------|
[ Tab from: http://www.guitartabs.cc/tabs/n/night_shift/cry_tab.html ]
Riff 1 (G1)
|-------------------------------------|
|-------------------------------------|
|-------------------------------------|
|-2-----2--------5-7------------------|
|-2-x-x-2-x-x----5-7------(Fill)------|
|-0-----0--------3-5------------------|


Verse (G2)  
|-------------------|
|-------------------| *During the verse, G1 improvises.
|-------------------|
|-------------------|
|22222222-5555-7777-|
|00000000-3333-5555-|

Chorus (G2)
|-------------------------------------------------|
|-------------------------------------------------|
|-------------------------------------------------|
|2222222222222222-5555555555555555-77777777777777-|
|2222222222222222-5555555555555555-77777777777777-|
|0000000000000000-3333333333333333-55555555555555-|

Chorus (G1)
|---------------------------------------------------|
|---------------------------------------------------|
|1111111111111111-2222222222222222-4444444444444444-|
|---------------------------------------------------|
|2222222222222222-5555555555555555-7777777777777777-|
|0000000000000000-3333333333333333-5555555555555555-|

Chorus Fill (G1)
|--------------|
|--------------| *guitar 2 stops during the chorus fill
|--------------|
|-7---2---5--2-|
|-7---2---5--2-|
|-5-x-0-x-3~-0-|
Comments