Nifelheim - Sodomizer Chords & Tabs

 

Sodomizer Chords & Tabs

Nifelheim Chords & Tabs

Version: 1 Type: Tab 0 ratings
1 star 2 stars 3 stars 4 stars 5 stars
comments

Sodomizer Tab

   
"Sodomizer"
by 
Nifelheim
from the album Nifelheim

Tab Notation:
p.m. palm mute
a.h. artificial harmonic
...  play many times
~ tremolo picking
^ bend note
h hammer-on note

Tuning: Normal (EADGBE)

Riff 1
d.-7-------
a.-5--7--9
e.-----5--7
play along with rain and thunder effects...

Riff 2
a-9~..........12-11--9~...........5-4
e-7~..........10-9---7~............3-2

a.-9--9--9-12-11--9--9--9-5-4
e.-7--7--7-10-9---7--7--7-3-2
the second guitar player plays this at the beginning over Riff2

Riff3
a-9--7--5--4
e-7--5--3--2

Riff4 (Best riff of the song!)
d----------- 999------------------------------777------------------------------------
a-------999-----999--10~..........------777-----777--9999-10101010-9~.......
e-777-------------------------------555----------------------------------------------

Solo 1
g----11-12-9---------------
d-9-----------12-11-12-11
play 4x

g-11^--14-11h-14-11h-14-(do this repeatedly)---
d---------------------------------------------------------

g-13^--16-13h-16-13h-16-(do this repeatedly)
d------------------------------------------------------


g----11-12-9---------------
d-9------------12-11-12-11
play 4x
Under solo-
a-9--5-4
e-7--3-2
play 8x
[ Tab from: http://www.guitartabs.cc/tabs/n/nifelheim/sodomizer_tab.html ]
a-11--7-6
e-9---5-4
play 4x

a-9--5-4
e-7--3-2
play 4x

Riff 5
a-9--9.........10-10........13--13........10-10........9--9.........
e-7--7.........8---8.........11--11.........8---8.........7--7.........
        p.m......       ..........        .........         ........   

Lead (play with riff 5)
e-------------------------------------------------------------------
b--0--1-1h-2-1h-2-(hammer repeatedly)--1--4--8--12--19

e-19-------------20------------
b----19-20-19------19-20-19
play this a bunch of times

d-9---------10------------8------9------9---(let ring...)
a---9-8-9------10-9-10---8-7----9-8------

The song ends with Riff1... I believe the second guitar is 
playing the same two octaves higher.

I believe that is all.  I have no idea how to play the solo at the end of the song.  Only certain notes are clear.  The guy is just going insane with hammer-ons.  If any one knows it, I would be grateful if you sent it to me.  Also at the beginning, the guitarists is going crazy with his tremolo bar.  Since my guitar does not have one, I didn't even try to figure it out.  This song is raw as hell, so there is a definite possibility that I could have missed some notes.  Let me know...
 
Transcribed by Lord Balsama (lord_balsama@hotmail.com)
Questions, comments, corrections--email me!
Comments