Niet - Lep Dan Za Smrt Chords & Tabs

 

Lep Dan Za Smrt Chords & Tabs

Niet Chords & Tabs

Version: 1 Type: Bass Tab 0 ratings
1 star 2 stars 3 stars 4 stars 5 stars
comments

Lep Dan Za Smrt Bass Tab

Artist: Niet
Song: Lep dan za smrt (a nice day for death)
Tabber: ALien
Email: conspiracy.of.smash@gmail.com

Verse
G|-------------------------------------------------------------------|
D|--2--2-2--2-2-2-----------------------------------5/7-7-6-4--------|
A|------------------2--2-2--2-2-2---4--4-4--4-4-4--------------------|
E|-------------------------------------------------------------------| (x4)
[ Tab from: http://www.guitartabs.cc/tabs/n/niet/lep_dan_za_smrt_btab.html ]
Verse 2
G|-------------------------------------------------------------------|
D|---------------1-2--2-2--2-2-4-----------------6-6-6-6-6-7-6-4-----|
A|---4--4-4--4-4------------------2--2-2--2-2-2----------------------|
E|-------------------------------------------------------------------|

Chorus
G|--------------------------------------------------------------|
D|-2--2-2--2-2-2------------------------------------------------|
A|------------------2--2-2--2-2-2-0--0-0--0-0-0-2-2-2-2-2-2-----|
E|--------------------------------------------------------------|

Then keep repeating that, and once in the middle of the song, he does
the chorus like this:
G|---------------------------------------------------------------|
D|-2--2-2--2-2-2--------------------------------------------2-4--|
A|-----------------2--2-2--2-2-2-0--0-0--0-0-0-0-2-4-2-4-2-------|
E|---------------------------------------------------------------|

And then you just keep repeating.
Enjoi.
Comments