Nidji - Hapus Aku Chords & Tabs

 

Nidji Chords & Tabs

Version: 2 Type: Tab 0 ratings
1 star 2 stars 3 stars 4 stars 5 stars
comments

Hapus Aku Tab

NIDJI

HAPUS AKU

.::INTRO::.
e|--------------------------------|
B|--7-------------------7---------|
G|----7---7---5--7--5-----7---7---|(2x)
D|------9-------------------9-----|
A|--------------------------------|
E|--------------------------------|

.::VERSE and CHORUS::.

e|-0-------2-------0------3---------|
B|-0-------3-------1------0---------|
G|-0-------4-------0------0---------|(2x)
D|-2(4x)---4(4x)---2(4x)--0(4x)-----|
A|-2-------2-------3------2---------|
E|-0----------------------3---------|

 .::BRIDGE::.
e|--0------2-------0------3------0------2-------0-------2----2(6x)-----|
B|--1------3-------1------0------1------3-------1-------3--------------|
G|--2------4-------0------0------2------4-------0-------2--------------|
D|--2(4x)--4(4x)---2(4x)--0(4x)--2(4x)--4(4x)---2(4x)---0--------------|
A|--0------2-------3------2------0------2-------3----------------------|
E|------------------------3--------------------------------------------|


 .::AFTER CHORUS::.
e|--------------------7-7-7-7---------------------|
B|-8-8-8-8-7---7---------------10--8-8------------|
G|-----------9---7-7------------------------------|
D|------------------------------------------------|
A|------------------------------------------------|
E|------------------------------------------------|
[ Tab from: http://www.guitartabs.cc/tabs/n/nidji/hapus_aku_tab_ver_2.html ]
e|---------------------------7-7-7-7---------------7-----|
B|---/8-8-8-8-7-----7-----------------10--8-8---10---8---|
G|---------------9---7-7---------------------------------|
D|-------------------------------------------------------|
A|-------------------------------------------------------|
E|-------------------------------------------------------|


VERSE, BRIDGE, CHORUS

.::SOLO::.

e|---------------------------------------------------------------|
B|--8-8-8-8-7-8-7------------------------------------------------|
G|----------------7----------------------------------7-----------|
D|-------------------10-9-10-9-10-9-10-9-10--5-7-5/9---7-7h9-7-5-|
A|---------------------------------------------------------------|
E|---------------------------------------------------------------|

e|-----------------------------------------------------7-7-7-8-8-8-10-10-10|
B|--8-8-8-8-7-8-7----------------7-7-7-8-8-8--10-10-10---------------------|
G|----------------7-/7-7-7-9-9-9-------------------------------------------|
D|-------------------------------------------------------------------------|
A|-------------------------------------------------------------------------|
E|-------------------------------------------------------------------------|


Chorus(2x)

Intro(2x)


End

Please rate
email me if i have a mistake(Com_4de@hotmail.com)
Support our local musician
Comments