Nidji - Hapus Aku Chords & Tabs

 

Nidji Chords & Tabs

Version: 1 Type: Tab 0 ratings
1 star 2 stars 3 stars 4 stars 5 stars
comments

Hapus Aku Tab

NIDJI
Hapus Aku
Breakthru'

Solo I:

e --------------------------------|
B --5/7------------7-----10-10--7-|
G -------7--4/0-------7-----------|
D --------------------------------|
A --------------------------------|
E --------------------------------|
-
e ----------------------------10-10--7--|
B --5/7-----------------7-8-------------|
G -------7--4--4-4-5-7------------------|
D --------------------------------------|
A --------------------------------------|
E --------------------------------------|


Solo II :

e -----------------------------5/7-7-7-7-7-5-3-3--3-3-2-2-0--|
B --7p8--8-8-8-8-7-5--7-7-0-3--------------------------------|
G -----------------------------------------------------------|
D -----------------------------------------------------------|
A -----------------------------------------------------------|
E -----------------------------------------------------------|
[ Tab from: http://www.guitartabs.cc/tabs/n/nidji/hapus_aku_tab.html ]
e -----------------------------5/7-7-7-7-7-7-7-3--|
B --7p8--8-8-8-8-7-5--7-7-0-3---------------------|
G ------------------------------------------------|
D ------------------------------------------------|
A ------------------------------------------------|
E ------------------------------------------------|


Solo 3:

e --------------------------------------------------------------|
B 8--8--8--8--7--8--7 ------------------------------------------|
G ---------------------7--5p4-5p4-5p4-5p4-5-------4--4/7--2--4--|
D ------------------------------------------5-7-5---------------|
A --------------------------------------------------------------|
E --------------------------------------------------------------|

e ----------------------------------------------------------------------------|
B 8--8--8--8--7h8-8--7h8------------7-7-7-8--10-10-10-12-12-12-13-13-13-13----|..
G -----------------------7--7-7-7-9-------------------------------------------|
D ----------------------------------------------------------------------------|
A ----------------------------------------------------------------------------|
E ----------------------------------------------------------------------------|
Comments