Nictofobia - Lotus Chords & Tabs

 

Lotus Chords & Tabs

Nictofobia Chords & Tabs

Version: 1 Type: Chords 0 ratings
1 star 2 stars 3 stars 4 stars 5 stars
comments

Lotus Chords

   
-----------------------------------------------------------------------------
More Info? Mp3s? Bio? Lyrics? Photos? Links? go now to: www.nictofobia.tk
más info? mp3s? biografía? letras? fotos? enlaces? entra a: www.nictofobia.tk
-----------------------------------------------------------------------------


"Lotus"
(Album "Laberinto", 2003)
Letra: Olberg Sanz
Música: Rafael Vargas, Flavio Mariani
Arreglos: Nictofobia

A)

e ----------------------------------------
B ----------------------------------------
G ----------------------------------------
D --------2---------0--------0--------0---
A -----0---------2--------2--------0------
E --0---------0--------3--------2--------- x2

entra bajo, guitarra y batería...

B)  (la nota con el asterisco déjala sonar)

e ---------------------------------------------
B ---------------------------------------------
G ------------0*---------0*--------0*-------0*-
D --------2-----------0---------0--------0-----
A -----0-----------2----------2--------0-------
E --0-----------0-----------3--------2--------- 

(se repite A una sóla vez)

Estrofa:

Am                      Em 
Mira este cuerpo detrás del vitral
       G                  D        
que está padeciendo un silencio sepulcral
   Am                      Em    
no busques mis ojos que no se abrirán
      G                  D
no esperes que hable, mi alma no está


Precoro: 
Em, Bm, G, F#... F#, G, F# (x2)


Coro:

Am                    Em              
no... no me pidas perdón
G                      D  
no me supliques porque ya no estoy (x2)

A)
[ Tab from: http://www.guitartabs.cc/tabs/n/nictofobia/lotus_crd.html ]
e ----------------------------------------
B ----------------------------------------
G ----------------------------------------
D --------2---------0--------0--------0---
A -----0---------2--------2--------0------
E --0---------0--------3--------2--------- x2

entra bajo, guitarra y batería...

B)  (la nota con el asterisco déjala sonar)

e ---------------------------------------------
B ---------------------------------------------
G ------------0*---------0*--------0*-------0*-
D --------2-----------0---------0--------0-----
A -----0-----------2----------2--------0-------
E --0-----------0-----------3--------2--------- 

(se repite A una sóla vez)

Estrofa 2:

Am                      Em
Mira este cuerpo detrás del vitral
G                     D
llora por dentro y tú no lo sabrás
Am                  Em
llévale flores a aquél que te amó
    G                        D
un mártir consciente que probó tu dolor


Coro (x2)

Acompañamiento del solo: Am, Em, G, D (x2)

Coro (x2)

A)

e ----------------------------------------
B ----------------------------------------
G ----------------------------------------
D --------2---------0--------0--------0---
A -----0---------2--------2--------0------
E --0---------0--------3--------2--------- x2

entra bajo, guitarra y batería...

B)  (la nota con el asterisco déjala sonar)

e ---------------------------------------------
B ---------------------------------------------
G ------------0*---------0*--------0*-------0*-
D --------2-----------0---------0--------0-----
A -----0-----------2----------0--------0-------
E --0-----------0-----------3--------2--------- 

(se repite A una sóla vez)

e --------------------0*---------
B ----------------0--------------
G ------------0------------------
D --------2----------------------
A -----0-------------------------
E --0----------------------------

Final: Em
Comments