Nicotine - Get The Liberty Chords & Tabs

 

Get The Liberty Chords & Tabs

Nicotine Chords & Tabs

Version: 1 Type: Tab 0 ratings
1 star 2 stars 3 stars 4 stars 5 stars
comments

Get The Liberty Tab

   
---------------------------------------------------------------------------
			     Get the Liberty - Nicotine
---------------------------------------------------------------------------
Tabbed by: Manu (OldSkool)
Email: patchouly70@hotmail.com
Song: Get The Liberty
Band: Nicotine
Tuning: Standard (EADgbe)

About the tab: This is pretty accurate because I heard a couple of
 Nicotine versions of "Get the Liberty" and this one is a pretty 
universal one. As far as a can see it fits 
with the song when I play it.

About Nicotine: Nicotine is a Japanese punk band that plays witht he same style than
Reset from Montreal. They uses a mix of the Japanese Rock style with a mix of North
American punk. Their song "Get the Liberty" is from the album "School of Liberty",
which also includes a cover of Green Day's basket case as a bonus track. Their Record
company is Asian Man Records. Go have a look at http://www.asianmanrecords.com/bands.html

[ Tab from: http://www.guitartabs.cc/tabs/n/nicotine/get_the_liberty_tab.html ]
Intro
e|-----------------------------------------------------------------------|
B|-----------------------------------------------------------------------|
G|-----------------------------------------------------------------------|
D|-3-3-3-2-x-x-x-x-x-----------3-3-3-3-----------------------------------|
A|-3-3-3-2-x-x-x-x-x-(3 times)-3-3-3-5-PickSlideeeeeeeeeeeeeeeee---------|
E|-1-1-1-0-x-x-x-x-x-----------1-1-1-5-----------------------------------|
Verse
Part A					Part B
e|-----------------------------------------------------------------------|
B|-----------------------------------------------------------------------|
G|-555555---------------555555-----------555555--------555555------------|
D|-555555-333333-555555-555555-(2 times)-555555-333333-555555-555555-----|
A|-333333-333333-555555-333333-----------333333-333333-333333-555555-----|
E|--------111111-333333-------------------------111111--------333333-----|
	I gave up to think about....	Lalalalala....
Part C				     Part D
e|-----------------------------------------------------------------------|
B|-----------------------------------------------------------------------| 
G|-555555---------------555555-------------------------------------------| 
D|-555555-333333-555555-555555------2---3---5-3-2---3---5---5-3-2-3------|
A|-333333-333333-555555-333333------2(*)3(*)5-3-2(*)3(*)5(*)5-3-2-3------|
E|--------111111-333333-------------0---1---3-1-0---1---3---3-1-0-1------|
  Lalala...      Get the Liberty!    The wall of ....
Chorus	
e|-----------------------------------------------------------------------|
B|-----------------------------------------------------------------------|
G|-555555---------------555555-----------555555---------------5----------|
D|-555555-333333-555555-555555-----------555555-333333-555555-5(*)-------|
A|-333333-333333-555555-333333-----------333333-333333-555555-3----------|
E|--------111111-333333-------------------------111111-333333------------|
  One more time why don't....

Solo 1
e|-----------------------------------------------------------------------|
B|----------------------1------------------------------------------------|
G|---0---2-2-000--0-2-4-----0---2-2-000--0-2-5-5-------------------------|
D|--2-2-2--------3---------2-2-2--------3----5-5-------------------------|
A|-3---3------------------3---3--------------3-3-------------------------|
E|-----------------------------------------------------------------------|
Bridge
e|-----------------------------------------------------------------------|
B|-----------------------------------------------------------------------|
G|-5---5---5---5-4-2-4---------------------------------------------------|
D|-5---5---5---5-4-2-4---------------------------------------------------|
A|-3---3---3---3-2-0-2---------------------------------------------------|
E|-----------------------------------------------------------------------|

Now play Verse A

Solo 2
e|-----------------------------------------------------------------------|
B|----------------------1------------------------------------------------|
G|---0---2-2-000--0-2-4-----0---2-2-2-333-2------------------------------|
D|--2-2-2--------3---------2-2-2-----------------------------------------|
A|-3---3------------------3---3------------------------------------------|
E|-----------------------------------------------------------------------| 

Verse Part E
e|-----------------------------------------------------------------------|
B|-----------------------------------------------------------------------| 
G|-----------------------------------------------------------------------| 
D|-2---3---5-3-2---3---5---5-3-2-3---------------------------------------|
A|-2(*)3(*)5-3-2(*)3(*)5(*)5-3-2-3---------------------------------------|
E|-0---1---3-1-0---1---3---3-1-0-1---------------------------------------|

Now play the chorus three times (You can mess with the rythm for 2nd and
 3rd time)


| /  slide up
| \  slide down
| h  hammer-on
| p  pull-off
| ~  vibrato
| +  harmonic
| x  Mute note
| * Try to find, or better yet make your own powerchord rythm
============================================================================
Comments