Nicolo Paganini - Caprice 2 Chords & Tabs

 

Caprice 2 Chords & Tabs

Nicolo Paganini Chords & Tabs

Version: 1 Type: Tab 0 ratings
1 star 2 stars 3 stars 4 stars 5 stars
comments

Caprice 2 Tab

From: letostak@netcom.com (Judy Letostak)

Nicolo Paganini
Caprice No. 24 Opus 1
letostak@netcom.com



|----------------------|----------------------|----------------------------|
|-------------------3--|-5p4h5p4--5-----------|-------------------3--------|
|-2p1h2p1--2--4--5-----|-------------7--5--4--|-2p1h2p1--2--4--5-----------|
|----------------------|----------------------|----------------------------|
|----------------------|----------------------|----------------------------|
|----------------------|----------------------|----------------------------|


|-------------------|-5p4h5p4--5--------------|----------------------------|
|-5p4h5p4--5--------|-------------8--6--5-----|-------------5--6-----------|
|-------------------|-------------------------|-7p6h7p6--7--------7--------|
|-------------7-----|-------------------------|----------------------------|
|-------------------|-------------------------|----------------------------|
|-------------------|-------------------------|----------------------------|

[ Tab from: http://www.guitartabs.cc/tabs/n/nicolo_paganini/caprice_2_tab.html ]
|----------------------|----------------------|----------------------------|
|-8p7h8p7--8--6--5-----|----------------5-----|-6p5h6p5--6-----------------|
|-------------------7--|-5p4h5p4--5--7-----5--|-------------7--5--4--------|
|----------------------|----------------------|----------------------------|
|----------------------|----------------------|----------------------------|
|----------------------|----------------------|----------------------------|


|----------------------|----------------------|----------------------------|
|-5p4h5p4--5-----------|-------------6--5-----|----------------------------|
|-------------5--4-----|-4p3h4p3--4-----------|----------------------------|
|-------------------7--|-------------------6--|-7p6h7p6--7-----------------|
|----------------------|----------------------|----------------------------|
|----------------------|----------------------|----------------------------|


||-12h13p12-----------------------|----------------------------------------|
||-----------13---------10h12p10--|-12h13p12---9h10p9----------------------|
||--------------------------------|--------------------9h10p9--------------|
||--------------------------------|----------------------------------------|
||--------------------------------|----------------------------7-----------|
||--------------------------------|----------------------------------------|


|-12h13p12------------------------|---------------------------------------||
|-----------13--------------------|---------------------------------------||
|---------------------------------|---------------------13h14p13----------||
|---------------------------------|-----------14h15p14------------14------||
|----------------------12h14p12---|-14h15p14------------------------------||
|---------------------------------|---------------------------------------||
Comments