Nicolo Paganini - Caprice 24 Chords & Tabs

 

Caprice 24 Chords & Tabs

Nicolo Paganini Chords & Tabs

Version: 1 Type: Tab

Caprice 24 Tab

Here we go
|---------------------------------------------------------------------|
|.---------------------5--------------------------------5------------.|
|------------5--4-------------------------------5-4-------------------|
|-7------7-7-------7----------6-4----7-------7-7----7-----------------|
|.-----------------------7-7------7------------------------------7---.|
|---------------------------------------------------------------------|
[ Tab from: http://www.guitartabs.cc/tabs/n/nicolo_paganini/caprice_24_tab.html ]
|5-----5-5-6-5--------------------------------------5---------------------|
|---------------8---6----------6-5---8-----------8-8--8-6--5------5-------|
|-------------------------7-7------7--------------------------5-5---7-5---|
|-------------------------------------------------------------------------|
|-------------------------------------------------------------------------|
|-------------------------------------------------------------------------|

|----------------------------------------------------------------------|
|-6------------------5----------------4----5--3------------------------|
|--------4-4-7-5-4----------5-4-------------------4---2----------------|
|-----------------------7-7-------7-3----2-----------------------------|
|----------------------------------------------------------------------|
|----------------------------------------------------------------------|

Hope that was tottaly right